Oops, an error
Loading. Please wait.

Addict With A Pen tab

version 2
version 2

Whole song

  • Capo and capo-less version, ending of the song included.

Interactive

748 views 18 this week
2 commentsread comments
1 2 3 4 5
x 5
add to favorites
×
Save as Personal and add changes to this tab that will be seen only by you. Learn more ›
×
You can save this tab as Personal to edit and correct it or add notes. All changes will be seen only by you. Learn more »
launch autoscroll
font size
0
reset
how to read this tab
guitar tuner
edit
Autoscroll
slow
fast
+/-
esc
set tempo
stop
About this tab version
Capo and capo-less version, ending of the song included. Was this info helpful? Yes No
Capo on 2nd fret
All fret numbers relative to capo

Tuning: Standard

[main melody]

e|-------------------------------------------------|-------------------------------------------------|
B|-------------------------------------------------|-------------------------------------------------|
G|-----2-----2-----0-----0-----0-----0-----0-----0-|----2-----2-----0-----0-----0-----0-----0-----0--|
D|--3-----3-----3-----3-----3-----3-----3-----3----|-2-----2-----2-----2-----2-----2-----2-----2-----|
A|-------------------------------------------------|-------------------------------------------------|
E|-------------------------------------------------|-------------------------------------------------|

e|-------------------------------------------------|-------------------------------------------------|
B|-------------------------------------------------|-------------------------------------------------|
G|-----2-----2-----0-----0-----0-----0-----0-----0-|----0-----0-----0-----0--------------------------|
D|--0-----0-----0-----0-----0-----0-----0-----0----|----------------------------3-----3-----3-----3--|
A|-------------------------------------------------|-1-----1-----1-----1-----1-----1-----1-----1-----|
E|-------------------------------------------------|-------------------------------------------------|

[ending line]

e|-------------------------------------------------|-------------------------------------------------|
B|-------------------------------------------------|-------------------------------------------------|
G|-----2-----2-----0-----0-----0-----0-----0-----0-|----2-----2-----0-----0-----0-----0-----0-----0--|
D|--3-----3-----3-----3-----3-----3-----3-----3----|-2-----2-----2-----2-----2-----2-----2-----2-----|
A|-------------------------------------------------|-------------------------------------------------|
E|-------------------------------------------------|-------------------------------------------------|

e|-------------------------------------------------|-------------------------------------------------|
B|-------------------------------------------------|-------------------------------------------------|
G|-------------------2---0-----0-----0-----0-----0-|----0-----0-----2-----2-----3-----3-----5-----5--|
D|--0-----------------------0-----0-----0-----0----|-------------------------------------------------|
A|-------------------------------------------------|-1-----1-----1-----1-----1-----1-----1-----1-----|
E|-------------------------------------------------|-------------------------------------------------|

e|-----------------5-----5-----3-----3-----3-----3-|-----------------5-----5-----3-----3-----3-----3-|
B|-------------------------------------------------|-------------------------------------------------|
G|-----5-----5-------------------------------------|-----5-----5-------------------------------------|
D|--3-----3-----3-----3-----3-----3-----3-----3----|--2-----2-----2-----2-----2-----2-----2-----2----|
A|-------------------------------------------------|-------------------------------------------------|
E|-------------------------------------------------|-------------------------------------------------|

e|-------------------5-5-----3-----3-----3-----3---|----3-----3-----3-----3-----1-----1-----1-----1--|
B|-------------------------------------------------|-------------------------------------------------|
G|-------------------------------------------------|-------------------------------------------------|
D|--0---------------------0-----0-----0-----0------|-------------------------------------------------|
A|-------------------------------------------------|-1-----1-----1-----1-----1-----1-----1-----1-----|
E|-------------------------------------------------|-------------------------------------------------|

**Without capo ( for those with quicker fingers :) )** 

[main melody]

e|-------------------------------------------------|-------------------------------------------------|
B|-------------------------------------------------|-------------------------------------------------|
G|-----4-----4-----2-----2-----2-----2-----2-----2-|----4-----4-----2-----2-----2-----2-----2-----2--|
D|--5-----5-----5-----5-----5-----5-----5-----5----|-4-----4-----4-----4-----4-----4-----4-----4-----|
A|-------------------------------------------------|-------------------------------------------------|
E|-------------------------------------------------|-------------------------------------------------|

e|-------------------------------------------------|-------------------------------------------------|
B|-------------------------------------------------|-------------------------------------------------|
G|-----4-----4-----2-----2-----2-----2-----2-----2-|----2-----2-----2-----2--------------------------|
D|--2-----2-----2-----2-----2-----2-----2-----2----|----------------------------5-----5-----5-----5--|
A|-------------------------------------------------|-3-----3-----3-----3-----3-----3-----3-----3-----|
E|-------------------------------------------------|-------------------------------------------------|

[ending line]

e|-------------------------------------------------|-------------------------------------------------|
B|-------------------------------------------------|-------------------------------------------------|
G|-----4-----4-----2-----2-----2-----2-----2-----2-|----4-----4-----2-----2-----2-----2-----2-----2--|
D|--5-----5-----5-----5-----5-----5-----5-----5----|-4-----4-----4-----4-----4-----4-----4-----4-----|
A|-------------------------------------------------|-------------------------------------------------|
E|-------------------------------------------------|-------------------------------------------------|

e|-------------------------------------------------|-------------------------------------------------|
B|-------------------------------------------------|-------------------------------------------------|
G|-------------------4---2-----2-----2----2-----2--|----2-----2-----3-----3-----5-----5-----7-----7--|
D|--2-----------------------2-----2-----2-----2----|-------------------------------------------------|
A|-------------------------------------------------|-3-----3-----3-----3-----3-----3-----3-----3-----|
E|-------------------------------------------------|-------------------------------------------------|

e|-----------------7-----7-----5-----5-----5-----5-|-----------------7-----7-----5-----5-----5-----5-|
B|-------------------------------------------------|-------------------------------------------------|
G|-----7-----7-------------------------------------|-----7-----7-------------------------------------|
D|--5-----5-----5-----5-----5-----5-----5-----5----|--4-----4-----4-----4-----4-----4-----4-----4----|
A|-------------------------------------------------|-------------------------------------------------|
E|-------------------------------------------------|-------------------------------------------------|

e|-------------------7-7-----5-----5-----5-----5---|----5-----5-----5-----5-----3-----3-----3-----3--|
B|-------------------------------------------------|-------------------------------------------------|
G|-------------------------------------------------|-------------------------------------------------|
D|--2---------------------2-----2-----2-----2------|-------------------------------------------------|
A|-------------------------------------------------|-3-----3-----3-----3-----3-----3-----3-----3-----|
E|-------------------------------------------------|-------------------------------------------------|

            
            
Suggest correction
Creating personal tab
Creating personal tab
You can edit any tab online and save it as your Personal.

You can edit, replace or remove any tab part or add personal notes – all changes will be seen only by you.

Personal tabs can be accessed anytime from any device, even offline.
Learn more »
comments
print report bad tab
2 comments total.
0 reply
MauSSBB 172 Mar 26, 2017 01:33 PM

Spot on, mate :)

guest
You may want to rate the tab now too:
select rating
Wanna post a correction for this tab? Suggest correction