Oops, an error
Loading. Please wait.

Addict With A Pen ukulele

version 4
version 4

Whole song

  • I wanted to include a tab for the ukulele that mak... Show more
  • Includes ukulele tab for part in song.

Interactive

1,861 views 33 this week
1 commentread comment
1 2 3 4 5
x 21
add to favorites
×
Save as Personal and add changes to this tab that will be seen only by you. Learn more ›
×
You can save this tab as Personal to edit and correct it or add notes. All changes will be seen only by you. Learn more »
launch autoscroll
font size
0
reset
transpose
0
reset
display chords
guitar tuner
edit
Autoscroll
slow
fast
+/-
esc
set tempo
stop
Author
Difficulty
intermediate
Strumming
There is no strumming pattern for this song yet. and get +5 IQ
I learned this on piano and then translated it into a ukulele tab. You can play this tab through the whole
song.

A|---2---2---0---0---0---0---0---0-|---2---2---0---0---0---0---0---0-|
E|-3---3---3---3---3---3---3---3---|-2---2---2---2---2---2---2---2---|
C|---------------------------------|---------------------------------|
G|---------------------------------|---------------------------------|

A|---2---2---0---0---0---0---0---0-|---0---0---0---0-----------------|
E|-0---0---0---0---0---0---0---0---|-------------------3---3---3---3-|
C|---------------------------------|-0---0---0---0---0---0---0---0---|
G|---------------------------------|---------------------------------|
Suggest correction
Creating personal tab
Creating personal tab
You can edit any tab online and save it as your Personal.

You can edit, replace or remove any tab part or add personal notes – all changes will be seen only by you.

Personal tabs can be accessed anytime from any device, even offline.
Learn more »
comments
print report bad tab
1 comment total.
0 reply
TyMercer 10 May 09, 2017 08:42 PM

Great overall, all the other versions of this have been wrong, but on uke, i find that it sounds better with like 3-2 3-2 3-0 3-0 3-0 3-0 3-0 3-0 instead of 3-2 3-2 3-2 3-0 3-0 3-0 3-0 3-0, you know?

guest
You may want to rate the tab now too:
select rating
Wanna post a correction for this tab? Suggest correction