Oops, an error
Loading. Please wait.

Anathema Tab

418 views 54 this week
no commentswrite comment
1 2 3 4 5
1 last vote to show rating
add to favorites
launch autoscroll
font size
0
reset
how to read this tab
guitar tuner
Autoscroll
slow
fast
+/-
esc
set tempo
stop
Help us to improve Ultimate-Guitar.com Take our survey!
×
Author
Difficulty
[Intro]
   G     Am      Em            C7    Em    D6    D
e|-3-|-|-0-|---|-0-|-|-5-3-|-|-0-|-|-0-|-|---|-|---|---|
B|-0-|-|-1-|-3-|-0-|-|-----|-|-0-|-|-0-|-|-0-|-|-0-|-3-|
G|-0-|-|-2-|---|-0-|-|-----|-|-0-|-|-0-|-|-2-|-|-2-|---|
D|-0-|-|-2-|---|-2-|-|-----|-|-2-|-|-2-|-|-4-|-|-4-|---|
A|---|-|---|---|---|-|-----|-|-3-|-|---|-|-5-|-|-5-|---|
E|---|-|---|---|---|-|-----|-|---|-|---|-|---|-|---|---|

[Verse 1]
   G    Am       Em            C7   Em     D6    D
e|-3-|-|-0-|---|-0-|-|-5-3-|-|-0-|-|-0-|-|---|-|---|---|
B|-0-|-|-1-|-3-|-0-|-|-----|-|-0-|-|-0-|-|-0-|-|-0-|-3-|
G|-0-|-|-2-|---|-0-|-|-----|-|-0-|-|-0-|-|-2-|-|-2-|---| x2
D|-0-|-|-2-|---|-2-|-|-----|-|-2-|-|-2-|-|-4-|-|-4-|---|
A|---|-|---|---|---|-|-----|-|-3-|-|---|-|-5-|-|-5-|---|
E|---|-|---|---|---|-|-----|-|---|-|---|-|---|-|---|---|

[Verse 2]
  Em             C7    Em   D4     D
e|---|-|---|---|---|-|---|-|-0-|-|---|---|
B|-0-|-|---|---|-0-|-|-0-|-|-2-|-|---|-3-|
G|-0-|-|-2-|-0-|-0-|-|-0-|-|-4-|-|-2-|---|
D|-2-|-|---|---|-2-|-|-2-|-|-5-|-|-4-|---|
A|---|-|---|---|-3-|-|---|-|---|-|-5-|---|
E|---|-|---|---|---|-|---|-|---|-|---|---|

[Verse 3]
   G        G         Am        A4        Em        Em        E4        Em
e|-3---3--|-3---3---|-0---0---|-0---0---|-0---0---|-0---0---|-0---0---|-0---0---|
B|-0---0--|-0---0---|-1---1---|-3---3---|-0---0---|-0---0---|-0---0---|-0---0---|
G|-0---0--|-0---0---|-2---2---|-2---2---|-0---0---|-0---0---|-2---2---|-0---0---|
D|---0---0|---0---0-|---2---2-|---2---2-|---2---2-|---2---2-|---2---2-|---2---2-|
A|--------|---------|---------|---------|---------|---------|---------|---------|
E|--------|---------|---------|---------|---------|---------|---------|---------|
   G        G         Am        Am        Dm4add7   Dm4add7   D         D
e|-3---3--|-3---3---|-0---0---|-0---0---|-5---5---|-5---5---|-2---2---|-2-|
B|-0---0--|-0---0---|-1---1---|-1---1---|-0---0---|-0---0---|-3---3---|-3-|
G|-0---0--|-0---0---|-2---2---|-2---2---|-2---2---|-2---2---|-2---2---|-2-|
D|---0---0|---0---0-|---2---2-|---2---2-|---0---0-|---0---0-|---0---0-|-0-|
A|--------|---------|---------|---------|---------|---------|---------|---|
E|--------|---------|---------|---------|---------|---------|---------|---|

[Bridge] (play 2x)
   Em                Em                G                 G
e|-----------------|-----------------|-----------------|-----------------|
B|-0-----0-----0---|---0-----0-------|-0-----0-----0---|---0-----0-------|
G|---0-----0-----0-|-----0-----0---0-|---0-----0-----0-|-----0-----0---0-|
D|-----2-----2-----|-2-----2-----2---|-----0-----0-----|-0-----0-----0---|
A|-----------------|-----------------|-----------------|-----------------|
E|-----------------|-----------------|-----------------|-----------------|
   E4                E4                Em                  Em6
e|-----------------|-----------------|-----------------|-----------------|
B|-0-----0-----0---|---0-----0-------|-0-----0-----0---|---1-----1-------|
G|---2-----2-----2-|-----2-----2---2-|---0-----0-----0-|-----0-----0---0-|
D|-----2-----2-----|-2-----2-----2---|-----2-----2-----|-2-----2-----2---|
A|-----------------|-----------------|-----------------|-----------------|
E|-----------------|-----------------|-----------------|-----------------|

[Bridge 2] (play 1x softly, then 2x loudly)
   Em                E4      E5        G5                G7
e|-0--0--0-0--0--0-|-0--0--0-0--0--0-|-3--3--3-3--3--3-|-3--3--3-3--3--3-|
B|-0--0--0-0--0--0-|-0--0--0-0--0--0-|-3--3--3-3--3--3-|-3--3--3-3--3--3-|
G|-0--0--0-0--0--0-|-2--2--2-4--4--4-|-0--0--0-0--0--0-|-2--2--2-4--4--4-|
D|-2--2--2-2--2--2-|-2--2--2-2--2--2-|-0--0--0-0--0--0-|-0--0--0-0--0--0-|
A|-----------------|-----------------|-----------------|-----------------|
E|-----------------|-----------------|-----------------|-----------------|
   Em                E4      E5        C                 C       C
e|-0--0--0-0--0--0-|-0--0--0-0--0--0-|-0--0--0-0--0--0-|-0--0--0-12--12--12-|
B|-5--5--5-5--5--5-|-5--5--5-5--5--5-|-1--1--1-1--1--1-|-1--1--1-13--13--13-|
G|-0--0--0-0--0--0-|-2--2--2-4--4--4-|-0--0--0-0--0--0-|-0--0--0-12--12--12-|
D|-2--2--2-2--2--2-|-2--2--2-2--2--2-|-2--2--2-2--2--2-|-2--2--2-14--14--14-|
A|-----------------|-----------------|-----------------|--------------------|
E|-----------------|-----------------|-----------------|--------------------|

[Rap]
  Em  E4 Em  G  G4 G  Am  Am   C   C  C
e|-0-|-0-0-|-3-|-5-3-|-0-|-0-|-0-|-0-12-|
B|-0-|-0-0-|-0-|-0-0-|-1-|-1-|-1-|-1-13-|
G|-0-|-2-0-|-0-|-2-0-|-2-|-2-|-0-|-0-12-|
D|-2-|-2-2-|-0-|-0-0-|-2-|-2-|-2-|-2-14-|
A|-2-|-2-2-|-2-|-2-2-|-3-|-3-|-3-|-3-15-|
E|-0-|-0-0-|-3-|---3-|-0-|-0-|-0-|-0-12-|

  Em  E4 Em  G  G4 G  Am  Am   C   C
e|-0-|-0-0-|-3-|-5-3-|-0-|-0-|-0-|-0-|
B|-0-|-0-0-|-0-|-0-0-|-1-|-1-|-1-|-1-|
G|-0-|-2-0-|-0-|-2-0-|-2-|-2-|-0-|-0-|
D|-2-|-2-2-|-0-|-0-0-|-2-|-2-|-2-|-2-|
A|-2-|-2-2-|-2-|-2-2-|-3-|-3-|-3-|-3-|
E|-0-|-0-0-|-3-|---3-|-0-|-0-|-0-|-0-|
Suggest correction
Give kudos to tab author, rate the tab!
1 2 3 4 5
comments
print report bad tab
guest
You may want to rate the tab now too:
select rating
Wanna post a correction for this tab? Suggest correction