Oops, an error
Loading. Please wait.

Cancer Bass Tab

1,813 views 87 this week
no commentswrite comment
1 2 3 4 5
x 5
add to favorites
launch autoscroll
font size
0
reset
guitar tuner
Autoscroll
slow
fast
+/-
esc
set tempo
stop
Help us to improve Ultimate-Guitar.com Take our survey!
×
Author
Difficulty
[Intro]

G|-------------------------------------------------------------------------------------------------------|
D|-------------------------------------------------------------------------------------------------------|
A|-5-----------------------------------------------------------------------------------------------------|
E|-------------------------------------------------------------------------------------------------------|


[Verse]
   Turn away,    If you could get me a drink of water cause  my lips are chapped and faded     
G|-------------------------------------------------------------------------------------------------------|
D|-------------------------------------------------------------------------------------------------------|
A|-5----------4-----------0-------------2----------------------------------------------------------------|
E|---------------------------------------------------------6\5--3----------------------------------------|
   Call my Aunt Marie,    help her gather all my things and bury me  in all my favourite colours
G|-------------------------------------------------------------------------------------------------------|
D|-------------------------------------------------------------------------------------------------------|
A|---------5-----------4------------0-------------2------------------------------------------------------|
E|-----------------------------------------------------------------6\5--3--------------------------------|
   My sisters and my brothers still, I will not kiss you, cause the hardest part of this, is leaving you
G|-------------------------------------------------------------------------------------------------------|
D|-------------------------------------------------------------------------------------------------------|
A|------------------------------0-------0-------2----------------------------------------0-------------5-|
E|----3--------------3----------------------------------------------3------------------------------------|


[Chorus]
   I will not kiss you, lips are chapped and faded call my,   lips are chapped and faded, faded   
G|-------------------------------------------------------------------------------------------------------|
D|-------------------------------------------------------------------------------------------------------|
A|------------5---------4---------------------0-----------2----------------------------------------------|
E|------------------------------------------------------------3------------------------------------------|
   Kiss you, lips are chapped and faded call my,        lips are chapped and faded, faded
G|-------------------------------------------------------------------------------------------------------|
D|-------------------------------------------------------------------------------------------------------|
A|-5---------4---------------------0------------2--------------------------------------------------------|
E|-------------------------------------------------6\5--3------------------------------------------------|


[Verse]
   Turn away,    cause I'm awful just to see, and all my hairs    abandoned all my body     
G|-------------------------------------------------------------------------------------------------------|
D|-------------------------------------------------------------------------------------------------------|
A|-5----------4------------0-------------2---------------------------------------------------------------|
E|------------------------------------------------------------6\5--3-------------------------------------|
   All my agony    know that I will never marry, baby I'm just soggy from the chemo
G|-------------------------------------------------------------------------------------------------------|
D|-------------------------------------------------------------------------------------------------------|
A|--------5------4-----------0------------2--------------------------------------------------------------|
E|----------------------------------------------------------6\5-3----------------------------------------|
   I'm counting down the days to go,   this just ain't living, and I just hope you know
G|-------------------------------------------------------------------------------------------------------|
D|-------------------------------------------------------------------------------------------------------|
A|----------------------------------0--0-----0----0-------2----2---2---2---------------------------------|
E|-----3------------------3-------------------------------------------------3---3---3--3-----------------|


[Chorus]
      I will not kiss you, lips are chapped and faded call my,   lips are chapped and faded, faded   
G|-------------------------------------------------------------------------------------------------------|
D|-------------------------------------------------------------------------------------------------------|
A|-0--0--0----0--5---------4---------------------0-----------2-------------------------------------------|
E|---------------------------------------------------------------3---------------------------------------|
   Kiss you,       lips are chapped and faded call my,                lips are chapped and faded, faded
G|-------------------------------------------------------------------------------------------------------|
D|-------------------------------------------------------------------------------------------------------|
A|-5-----5--5--5--4---------4------------0------0-----2--2--2--2-----------------------------------------|
E|---------------------------------------------------------------6\5--3--------3------------3------3-----|


[Bridge]
   If you say,  goodbye today,  I'd ask you to be true       cause the hardest part of this is leaving you 
G|-------------------------------------------------------------------------------------------------------|
D|-------------------------------------------------------------------------------------------------------|
A|-5---5---5--5-----4---4--4--4-----2-----2---2--2--0--0--0--0--------------------------0---0---0----0--2|
E|----------------------------------------------------------------------3----3---3--3--------------------|
                     Yes the hardest part of this
G|-------------------------------------------------------------------------------------------------------|
D|-------------------------------------------------------------------------------------------------------|
A|-2--2--2--2--2--2--2-------------------------0--0--0--0--0---------------------------------------------|
E|---------------------------3-----3--3----3-------------------------------------------------------------|


[Chorus]
   I will not kiss you, lips are chapped and faded call my,   lips are chapped and faded, faded   
G|-------------------------------------------------------------------------------------------------------|
D|-------------------------------------------------------------------------------------------------------|
A|------------5---------4---------------------0-----------2------------------------0---------------------|
E|------------------------------------------------------------3------------------------------------------|
   Kiss you, lips are chapped and faded call my,        lips are chapped and faded, faded
G|-------------------------------------------------------------------------------------------------------|
D|-------------------------------------------------------------------------------------------------------|
A|-5---------4---------------------0------------2--------------------------------------------------------|
E|------------------------------------------------------3------------------------------------------------|

The link to the song is https://www.youtube.com/watch?v=yw6i1SAHetc
It really helps to listen to the song whilst attempting to play this

Enjoy!

************************************

| x   Dead note
| g   Grace note
| (n) Ghost note
| h   Hammer-on
| p   Pull-off
| r   Release
| >   Accented note
| t   Tapping
| b   Bend
| br  Bend release
| pb  Pre-bend
| pbr Pre-bend release
| /   Slide up
| \   Slide down
| ~   Vibrato
| s   Slap
| P   Pop
| PM  Palm mute
| TR  Trill
| N   Tremolo

************************************
Suggest correction
comments
print report bad tab
guest
You may want to rate the tab now too:
select rating
Wanna post a correction for this tab? Suggest correction