Oops, an error
Loading. Please wait.

Cancer Tab

1,327 views 129 this week
no commentswrite comment
1 2 3 4 5
x 3
add to favorites
launch autoscroll
font size
0
reset
how to read this tab
guitar tuner
Autoscroll
slow
fast
+/-
esc
set tempo
stop
Help us to improve Ultimate-Guitar.com Take our survey!
×
Author
Difficulty
About this tab version
I tabbed out the verses and removed the back-up vocals. Was this info helpful? Yes No
[Verse 1]
e|---------------------------------------------------------------------------|
B|---------------------------------------------------------------------------|
G|---------------------------------------------------------------------------|
D|0----0---------------------------------------------------------------------|
A|-----------------4---------------------2-----------------------------------|
E|---------------------------------------------------------------------------|
       Turn away...if you could get me a drink...
e|---------------------------------------------------------------------------|
B|---------------------------------------------------------------------------|
G|---------------------------------------------------------------------------|
D|---------------------------------------------------------0-----------------|
A|------------------2--------------------------------------------------4-----|
E|---------------------3-----------------------------------------------------|
  ...of water cause my lips are chapped and faded. Call my aunt Marie...
e|---------------------------------------------------------------------------|
B|---------------------------------------------------------------------------|
G|---------------------------------------------------------------------------|
D|---------------------------------------------------------------------------|
A|--------------------------2------------------2-----------------------------|
E|----------------------------------------------3----------------------------|
  ...help her gather all my things, and bury me and all my favorite colors...
e|---------------------------------------------------------------------------|
B|---------------------------------------------------------------------------|
G|---------------------------------------------------------------------------|
D|---------------------------------------------------------------------------|
A|-------------------------------------------------2-------------------------|
E|------3------------------------5-------------------------------------------|
  ...my sisters and my brothers...still I will not kiss you...
e|---------------------------------------------------------------------------|
B|---------------------------------------------------------------------------|
G|---------------------------------------------------------------------------|
D|----------------------------------------------0----------------------------|
A|------------------------------0---------------5----------------------------|
E|--------------3---------------5--------------------------------------------|
  ...‘cause the hardest part of this is leaving you

[Chorus]
           D
I will not kiss you
A
Lips are chapped and faded
     Bm
Call my
G
Lips are chapped and faded
D
Kiss you
A
Lips are chapped and faded
     Bm
Call my
Gm
Lips are chapped and faded

[Verse 2]
e|---------------------------------------------------------------------------|
B|---------------------------------------------------------------------------|
G|---------------------------------------------------------------------------|
D|0--------------------------------------------------------------------------|
A|-------------4---------0-------------2-------------------------------------|
E|---------------------------------------------------------------------------|
  Turn away...'cause I'm awful just to see...
e|---------------------------------------------------------------------------|
B|---------------------------------------------------------------------------|
G|---------------------------------------------------------------------------|
D|---------------------------------------------------0-----------------------|
A|--------------2------------------------------------------------------------|
E|----------------5-3--------------------------------------------------------|
  ...and all my hair's abandoned all my body. All my agony...
e|---------------------------------------------------------------------------|
B|---------------------------------------------------------------------------|
G|---------------------------------------------------------------------------|
D|---------------------------------------------------------------------------|
A|-4------------0-----------2----------------2-------------------------------|
E|--------------------------------------------3-5----------------------------|
  ...know that I will never marry, baby I'm just soggy from the chemo...
e|---------------------------------------------------------------------------|
B|---------------------------------------------------------------------------|
G|---------------------------------------------------------------------------|
D|---------------------------------------------------------------------------|
A|-------------------------------------------------2-------------------------|
E|------3------------------5-------------------------------------------------|
  ...I'm counting down the days to go. This just ain't living...
e|---------------------------------------------------------------------------|
B|---------------------------------------------------------------------------|
G|---------------------------------------------------------------------------|
D|----------------------------------------------0----------------------------|
A|------------------------------0---------------5----------------------------|
E|--------------3---------------5--------------------------------------------|
  ...and I just hope you know

[Chorus]
           D
I will not kiss you
A
Lips are chapped and faded
     Bm
Call my
G
Lips are chapped and faded
D
Kiss you
A
Lips are chapped and faded
     Bm
Call my
Gm
Lips are chapped and faded


[Bridge]
D
If you say
Daug
Goodbye today
Bm                 D
I'll ask you to be true
           G               A               Bm   F#  D  E
'Cause the hardest part of this is leaving you
         G               A
Yes, the hardest part of this...


[Chorus]
           D
I will not kiss you
A
Lips are chapped and faded
     Bm
Call my
G
Lips are chapped and faded
D
Kiss you
A
Lips are chapped and faded
     Bm
Call my
Gm                          D (pluck the string, not the chord)
Lips are chapped and faded
Suggest correction
Give kudos to tab author, rate the tab!
1 2 3 4 5
comments
print report bad tab
guest
You may want to rate the tab now too:
select rating
Wanna post a correction for this tab? Suggest correction