Oops, an error
Loading. Please wait.

Cancer tab

version 2
version 2

Whole song

  • I tabbed out the verses and removed the back-up vocals.
  • Includes the melody for beginners and those creating arrangments.
1,267 views 27 this week
no commentswrite comment
1 2 3 4 5
x 5
add to favorites
×
Save as Personal and add changes to this tab that will be seen only by you. Learn more ›
×
You can save this tab as Personal to edit and correct it or add notes. All changes will be seen only by you. Learn more »
launch autoscroll
font size
0
reset
how to read this tab
guitar tuner
edit
Autoscroll
slow
fast
+/-
esc
set tempo
stop
About this tab version
Includes the melody for beginners and those creating arrangments. Was this info helpful? Yes No
Cancer  - Twentyonepilots cover
-----------------------------------------------------------------------------
This is the simple melody to cancer 





[Verse 1]

      turn     a  way         if   you  could get me  a  drink    of
e|---------------------------------------------------------------------------|
B|----------------------------------------------------2----3-----------------|
G|----------------------------2-----2----2-----2--4---------------2----------|
D|-----0h2-----4---4---------------------------------------------------------|
A|---------------------------------------------------------------------------|
E|---------------------------------------------------------------------------|
  
    wat  er    cuz     my      lips are chapped  and       fad   ed
e|---------------------------------------------------------------------------|
B|---2---0----------------------2----0---------------------2-----0-----------|
G|--------------2------0-------------------2------0--------------------------|
D|---------------------------------------------------------------------------|
A|---------------------------------------------------------------------------|
E|---------------------------------------------------------------------------|

    call  my     aunt   mar ie     help  me gath er   all    my  things
e|---------------------------------------------------------------------------|
B|------------------------------------------------------------2---3----------|
G|---2----0------2/4----2---2-------2----2---2----2-----4--------------------|
D|---------------------------------------------------------------------------|
A|---------------------------------------------------------------------------|
E|---------------------------------------------------------------------------|
 
     and     bur   y     me  in   all   my    fav   rite   col  ors 
e|---------------------------------------------------------------------------|
B|------------2----0---------------2-----0------------------2----0-----------|
G|----0------------------2----0----------------2-----0-----------------------|
D|---------------------------------------------------------------------------|
A|---------------------------------------------------------------------------|
E|---------------------------------------------------------------------------|

     my    sis     ters   and    my      broth  ers     still
e|---------------------------------------------------------------------------|
B|---0------0------------------------------0---------------------------------|
G|------------------2------0---------------------2-------0/2-----------------|
D|--------------------------------2------------------------------------------|
A|---------------------------------------------------------------------------|
E|---------------------------------------------------------------------------|
  
     I      will      not     kiss   you        cuz    the   hard  est  part
e|-----------------------------0-----------------0------2-----3-----2----0---|
B|---------------------2--------------3--------------------------------------|
G|---2-------4---------------------------------------------------------------|
D|---------------------------------------------------------------------------|
A|---------------------------------------------------------------------------|
E|---------------------------------------------------------------------------|

     of    this    is     leav     ing      you
e|----------------------------------0----------------------------------------|
B|---3------2------2-------3-----------------3-------------------------------|
G|---------------------------------------------------------------------------|
D|---------------------------------------------------------------------------|
A|---------------------------------------------------------------------------|
E|---------------------------------------------------------------------------|

[Chorus]

     i      will     not       kiss   you    kiss    you x2
e|------------ --------------------------------------------------------------|
B|--------------------3--------3/6/3---3-----3/6/3----3----------------------|
G|---2-------4---------------------------------------------------------------|
D|---------------------------------------------------------------------------|
A|---------------------------------------------------------------------------|
E|---------------------------------------------------------------------------|


      lips    are   chapped and fade   ed    call  my           (turn away)
e|---------------------------------------------------------------------------|
B|------3------2-------0---------3-----2------0------------------------------|
G|---------------------------2---------------------2/4-----------------------|
D|----------------------------------------------------------------0h2--4-4---|
A|---------------------------------------------------------------------------|
E|---------------------------------------------------------------------------|
 
      lips   are    chaped and fade  ed     fade   ed
e|---------------------------------------------------------------------------|
B|------3------2-------0---------3-----2------3-----2------------------------|
G|---------------------------2-----------------------------------------------|
D|---------------------------------------------------------------------------|
A|---------------------------------------------------------------------------|
E|---------------------------------------------------------------------------|


       kiss   you    kiss    you x2
e|---------------------------------------------------------------------------|
B|-----3/6/3---3-----3/6/3----3----------------------------------------------|
G|---------------------------------------------------------------------------|
D|---------------------------------------------------------------------------|
A|---------------------------------------------------------------------------|
E|---------------------------------------------------------------------------|


      lips    are   chapped and fade   ed    call  my           (turn away)
e|---------------------------------------------------------------------------|
B|------3------2-------0---------3-----2------0------------------------------|
G|---------------------------2---------------------2/4-----------------------|
D|----------------------------------------------------------------0h2--4-4---|
A|---------------------------------------------------------------------------|
E|---------------------------------------------------------------------------|

       lips   are    chaped and fade  ed     fade   ed
e|---------------------------------------------------------------------------|
B|------3------2-------0---------3-----2------3-----2------------------------|
G|---------------------------2-----------------------------------------------|
D|---------------------------------------------------------------------------|
A|---------------------------------------------------------------------------|
E|---------------------------------------------------------------------------|

[Verse 2]

      turn     a  way        cuz   im   aw   ful  just  to  see    that...
e|---------------------------------------------------------------------------|
B|------------------------------------------------------2----3---------------|
G|----------------------------2-----2----2-----2---4----------------2--------|
D|-----0h2-----4---4---------------------------------------------------------|
A|---------------------------------------------------------------------------|
E|---------------------------------------------------------------------------|

************************************

| h   Hammer-on
| p   Pull-off
| /   Slide up
| \   Slide down


************************************

            
            
Suggest correction
Creating personal tab
Creating personal tab
You can edit any tab online and save it as your Personal.

You can edit, replace or remove any tab part or add personal notes – all changes will be seen only by you.

Personal tabs can be accessed anytime from any device, even offline.
Learn more »
comments
print report bad tab
guest
You may want to rate the tab now too:
select rating
Wanna post a correction for this tab? Suggest correction