Oops, an error
Loading. Please wait.

Car Radio Ukulele Chords

version 2
version 2

Acoustic

  • This version in very precisely explaining how to p... Show more

Whole song

Interactive

208 views 27 this week
no commentswrite comment
1 2 3 4 5
x 3
add to favorites
launch autoscroll
font size
0
reset
transpose
0
reset
display chords
guitar tuner
Autoscroll
slow
fast
+/-
esc
set tempo
stop
Help us to improve Ultimate-Guitar.com Take our survey!
×
Author
Difficulty
intermediate
About this tab version
This version in very precisely explaining how to play the song, and not only showing the chords. Was this info helpful? Yes No
Strumming
Intro 120 bpm
1
&
2
&
3
&
4
&
Play
Verse 1 120 bpm
1
&
2
&
3
&
4
&
5
&
6
&
7
&
8
&
9
&
10
&
11
&
12
&
13
&
14
&
15
&
16
&
Play
Verse 2 120 bpm
1
&
2
&
3
&
4
&
5
&
6
&
7
&
8
&
9
&
10
&
11
&
12
&
13
&
14
&
15
&
16
&
Play
Bridge 120 bpm
1
&
2
&
3
&
4
&
5
&
6
&
7
&
8
&
9
&
10
&
11
&
12
&
13
&
14
&
15
&
16
&
Play
Intro 2 120 bpm
1
&
2
&
3
&
4
&
Play
Are these strumming patterns correct? Yes No
This is how Tyler plays the song on Ukulele. I used this video as reference: https://youtu.be/1xNmpOF0PZ0
I wrote down the exact way he plays it, but don't hesitate to try something different.

[Intro 1]

  F                                   F                     G
A|----0---|----0---|----0---|----0---|----0---|----0---|----2---|----2---|
E|----1---|----1---|----1---|----1---|----1---|----1---|----3---|----3---|
C|0-------|0-------|0-------|0-------|0-------|0-------|0-------|2-------|
G|0h2-----|2-------|2-------|2-------|0h2-----|2-------|2-------|0-------|

  Am                                  G
A|----3---|----3---|----3---|----3---|----2---|----2---|----2---|----2---|
E|----0---|----0---|----0---|----0---|----3---|----3---|----3---|----3---|
C|0-------|0-------|0-------|0-------|2-------|2-------|2-------|2-------|
G|2-------|2-------|2-------|2-------|0-------|0-------|0-------|0-------| 4x


[Verse 1]

F
 I ponder of something great
                              G
My lungs will fill and then deflate
     Am
They fill with fire

Exhale desire
  G
I know it's dire

My time today

F
 I have these thoughts

So often I ought

To replace that slot
 G               Am
With what I once bought

'Cause somebody stole
           G
My car radio

And now I just sit in silence

F                G
 Sometimes quiet is violent
Am
 I find it hard to hide it
   G
My pride is no longer inside
     F
It's on my sleeve

My skin will scream

Reminding me of
    G          Am
Who I killed inside my dream
                     G
I hate this car that I'm driving
                      F
There's no hiding for me

I'm forced to deal with what I feel
                          G             Am
There is no distraction to mask what is real
G
 I could pull the steering wheel

F
 I have these thoughts

So often I ought

To replace that slot
 G               Am
With what I once bought

'Cause somebody stole
           G
My car radio

And now I just sit in silence


[Intro 1] 2x


[Verse 2]

F
 I ponder of something terrifying
F                                     G
 'Cause this time there's no sound to hide behind
Am
 I find over the course of our human existence
G
 One thing consists of consistence
F
And it's that we're all battling fear
   F                                G
Oh dear, I don't know if we know why we're here
   A,
Oh my, 

Too deep

Please stop thinking
  G
I liked it better when my car had sound

F
 There are things we can do
             F                            G
But from the things that work there are only two
    Am
And from the two that we choose to do
G
Peace will win

And fear will lose
        F
There's faith and there's sleep
   F                         G
We need to pick one please because
Am
Faith is to be awake
            G
And to be awake is for us to think
              F
And for us to think is to be alive
           F
And I will try with every rhyme
         Am
To come across like I am dying
           G                       F
To let you know you need to try to think


I have these thoughts
           F
So often I ought

To replace that slot
 G               Am
With what I once bought

'Cause somebody stole
           G
My car radio

And now I just sit in silence


[Intro 1] 2x


[Bridge]

F   F                        G
     And now I just sit in silence
Am  G
     And now I just sit in silence
F   F                        G
     And now I just sit in silence
Am  G
    Ooohhhhhh

[Intro 2]

  F                                   F
A|----0---|----0---|0x------|--------|----0---|----0---|0x------|--------|
E|----1---|----1---|1x------|--------|----1---|----1---|1x------|--------|
C|0-------|0-------|0x------|--------|0-------|0-------|0x------|--------|
G|0h2-----|2-------|2x------|--------|0h2-----|2-------|2x------|--------|

  Am                                  G
A|----3---|----3---|3x------|--------|----2---|----2---|2x------|--------|
E|----0---|----0---|0x------|--------|----3---|----3---|3x------|--------|
C|0-------|0-------|0x------|--------|2-------|2-------|2x------|--------|
G|2-------|2-------|2x------|--------|0-------|0-------|0x------|--------| 2x


[Intro 1]
F
 I ponder of something great
   F                          G
My lungs will fill and then deflate
     Am
They fill with fire

Exhale desire
  G
I know it's dire

My time today

F
 I have these thoughts
           F
So often I ought

To replace that slot
 G               Am
With what I once bought

'Cause somebody stole
           G
My car radio

And now I just sit in silence


**************************************************

| h   Hammer-on
| x   Dead note

**************************************************
Suggest correction
Give kudos to tab author, rate the tab!
1 2 3 4 5
comments
print report bad tab
guest
You may want to rate the tab now too:
select rating
Wanna post a correction for this tab? Suggest correction