Oops, an error
Loading. Please wait.
We have an official Doubt tab made by UG professional guitarists. Check out the tab »
×
2,515 views 9 this week
no commentswrite comment
1 2 3 4 5
2 more votes to show rating
add to favorites
×
Save as Personal and add changes to this tab that will be seen only by you. Learn more ›
×
You can save this tab as Personal to edit and correct it or add notes. All changes will be seen only by you. Learn more »
launch autoscroll
font size
0
reset
how to read this tab
guitar tuner
edit
Autoscroll
slow
fast
+/-
esc
set tempo
stop
Author
-------------------------------------------------------------------------------
                            Doubt - Twenty One Pilots
-------------------------------------------------------------------------------
Tabbed by: Vans330
E-mail: ellbeepye@hotmail.com

Tuning: Drop D? except with a normal high e string. 

This is just a rough version and you can play it with one or two guitars, whichever you prefer. But it's pretty
much these two melodies throughout the whole song. Listen to it and you'll figure out the timing. There's a 
couple parts you don't have to play in at all because he's only playing piano chords. Or you can play the B on
the G string that you play in the beginning of the intro/choruses. Anyway, that's really all, you can comment 
corrections or anything, that'd be cool. But yeah, again, this is just a rough outline of it. 

Intro/chorus

e|--------0----0--1-----0--1-----0-----0--1-----0--1-----0-----0--1-----0--1-----0-----0--1-----0--1----|[x2]
B|----------------------------3-----3--------3--------3-----3--------3--------1-----1--------1----------|
G|-----2----2--------2----------------------------------------------------------------------------------|
D|------------------------------------------------------------------------------------------------------|
A|------------------------------------------------------------------------------------------------------|
D|------------------------------------------------------------------------------------------------------|


e|-----------0--1-----0--------0--1-----0--1--------0--1-----0--------0--1-----0--1----------|[similar but 
B|-----------------------3--3--------3--------3--3--------3-----1--1--------1----------------| a couple 
G|-----2--2--------2-------------------------------------------------------------------------| different notes
D|-------------------------------------------------------------------------------------------| and it's played
A|-------------------------------------------------------------------------------------------| more staccato]
D|-------------------------------------------------------------------------------------------|

Verses:

e|------------------------------------------------------------------------------------------|
B|------------------------------------------------------------------------------------------|
G|------------------------------------------------------------------------------------------|
D|------------------------------------------------------------------------------------------|
A|------------------------1--1--------------------------------------------------------------|
D|----5--5--0--0-0--0--0--------0--0-0--0--0------------------------------------------------|

Lyrics:

Scared of my own image, scared of my own immaturity,
Scared of my own ceiling, scared I'll die of uncertainty,
Fear might be the death of me, fear leads to anxiety,
Don't know what's inside of me.

Don't forget about me,
Don't forget about me,
Even when I doubt you,
I'm no good without you, no, no

Temperature is dropping, temperature is dropping,
I'm not sure if I can see this ever stopping,
Shaking hands with the dark parts of my thoughts, no,
You are all that I've got, no.

Don't forget about me,
Don't forget about me,
Even when I doubt you,
I'm no good without you, no, no, no, no, no

Gnawing on the bishops, claw our way up their system,
Repeating simple phrases, someone holy insisted,
I want the markings made on my skin,
To mean something to me again,
Hope you haven't left without me.
Hope you haven't left without me, please.

[2x]
Don't forget about me,
Don't forget about me,
Even when I doubt you,
I'm no good without you, no, no, no, no

Hey! Hey!
Don't forget about me, no
Hey! Hey!
Don't forget about me, no
Hey! Hey!
Don't forget about me, no
Hey! Hey!
Don't forget about me, no

Lyrics from A-Z Lyrics
Suggest correction
Creating personal tab
Creating personal tab
You can edit any tab online and save it as your Personal.

You can edit, replace or remove any tab part or add personal notes – all changes will be seen only by you.

Personal tabs can be accessed anytime from any device, even offline.
Learn more »
Give kudos to tab author, rate the tab!
1 2 3 4 5
comments
print report bad tab
guest
You may want to rate the tab now too:
select rating
Wanna post a correction for this tab? Suggest correction