Oops, an error
Loading. Please wait.

Doubt Ukulele Chords

version 2
version 2

Whole song

  • This version is a Ukelele tab, including synth lin... Show more
535 views 39 this week
no commentswrite comment
1 2 3 4 5
x 3
add to favorites
launch autoscroll
font size
0
reset
transpose
0
reset
display chords
guitar tuner
Autoscroll
slow
fast
+/-
esc
set tempo
stop
Help us to improve Ultimate-Guitar.com Take our survey!
×
Author
Difficulty
novice
About this tab version
This version is a Ukelele tab, including synth lines, bass lines, timing, and accuracy. Was this info helpful? Yes No
Strumming
Whole song 123 bpm
1
2
3
4
5
6
7
8
9
10
11
12
13
14
15
16
Play
Is this strumming pattern correct? Yes No
Doubt
twenty one pilots
Blurryface

Tabbed for Ukelele! With bonus bass tab at end.

1 - Lead Melody (Keyboard)
2 - Chords      (Piano)
3 - Bass        (Drop D)
4 - Chorus Synth


Lead Melody
A|---7---7-8---7-8-|-5-7-5-7-8-5-7-8-|-5-7-5-7-8-5-7-8-|-3-7-3-7-8-3-7-8-|
E|-5---5-----5-----|-----------------|-----------------|-----------------|
C|-----------------|-----------------|-----------------|-----------------|
G|-----------------|-----------------|-----------------|-----------------|

[Chords]  (If looking for chords, just play this the entire song.)
   Gm                A#                Dm                C
A|-5---------------|-5---------------|-5---------------|-3---------------|
E|-6---------------|-6---------------|-5---------------|-3---------------|
C|-7---------------|-5---------------|(5)--------------|-4---------------|
G|-7---------------|-7---------------|-7---------------|-5---------------|


Trap Melody
A|-------7-8---7---|-5---5-7-8-5-7-8-|-5---5-7-8-5-7---|-3---3-7-8-3-7-8-|
E|-5---5-----5-----|-----------------|-----------------|-----------------|
C|-----------------|-----------------|-----------------|-----------------|
G|-----------------|-----------------|-----------------|-----------------|


Chorus Orchestration (2:20 - 2:52)
Gm  A#  Dm  C
Gm  A#  Dm  C
Gm  A#  Dm  C
Gm  A#  Dm  C

   Ayyyyyy Ayyyyyyy  Ayyyyyy Ayyyyyyy  DontFor get A     boutMe  No
A|-5--\3---5--/7---|-5--\3---5--/7---|-8---7---5---3---|-----------------|
E|-----------------|-----------------|-----------------|-5---3---1--/3---|
C|-----------------|-----------------|-----------------|-----------------|
G|-----------------|-----------------|-----------------|-----------------|


****************************************************************************
                               Bass Lines
****************************************************************************

[Verse]
   Q   H      Q     E E E E H        Q   E Q+    Q     E E E E H
G|----------------|----------------|-----------------|-----------------|
D|----------------|----------------|-----------------|-----------------|
A|----------------|----------------|-----------------|-----------------|
D|-5----------0---|---x-0----------|-8-----8-----0---|---x-0-----------|
   Scared of...

[Chorus]
   Q   H      Q     E E E E H        Q   E Q+    Q     E E E E H
G|----------------|----------------|-----------------|-----------------|
D|----------------|----------------|-----------------|-----------------|
A|----------------|----------------|-----------------|---x-3-----------|
D|-5----------5---|---x-8----------|-0-----0-----0---|-----------------|
                                     .     .     .
[Outro] (As vocals fade out)
   Q   E Q+    Q                       Q   E Q+    Q 
G|-----------------|-----------------|-----------------|-----------------|
D|-----------------|-----------------|-----------------|-----------------|
A|-----------------|-----------------|-----------------|-----------------|
D|-0-----0-----0---|-----------------|-0-----0-----0---|-----------------|
   .     .     .                       .     .     .


Legend
/ - slide up
\ - slide down
. - palm mute
W - whole note
H - half note
Q - quarter note
E - eighth note
S - sixteenth note
+ - dotted note (increase by half of original duration)
Suggest correction
Give kudos to tab author, rate the tab!
1 2 3 4 5
comments
print report bad tab
guest
You may want to rate the tab now too:
select rating
Wanna post a correction for this tab? Suggest correction