Oops, an error
Loading. Please wait.

Glowing Eyes Tab

742 views 27 this week
no commentswrite comment
1 2 3 4 5
2 more votes to show rating
add to favorites
launch autoscroll
font size
0
reset
how to read this tab
guitar tuner
×
Best way to learn
"Glowing Eyes"
Autoscroll
slow
fast
+/-
esc
set tempo
stop
Author
Difficulty
  follow
intermediate
**IMPORTANT: this does NOT follow the studio version nor a specific live one so don't use it to play along.**



[Intro]

e|---------6-6-------6-6-|--------------------|------3-3-----------|----------------------------|
B|---------8-8-------8-8-|------4-4-------4-4-|------4-4-------6-6-|------4-4-------6-6---------|
G|-------8---------8-----|------5-5-------5-5-|----5-----------7-7-|------5-5-------7-7---------|   (x2)
D|-----8---------8-------|----6---------6-----|--5-----------8-----|----6---------8-------------|
A|---6---------6---------|--6---------6-------|3-----------8-------|--6---------8---------------|
E|-----------------------|4---------4---------|----------6---------|4---------6-----------------|



[Verse]

e|---------6-6-------6-6-|--------------------|------3-3---------3-3-|------------------------|
B|---------8-8-------8-8-|------4-4-------4-4-|------4-4---------4-4-|------6-6-------6-6-----|
G|-------8---------8-----|------5-5-------5-5-|----5-----------5-----|------7-7-------7-7-----|   
D|-----8---------8-------|----6---------6-----|--5-----------5-------|----8---------8---------|
A|---6---------6---------|--6---------6-------|3-----------3---------|--8---------8-----------|
E|-----------------------|4---------4---------|----------------------|6---------6-------------|


e|---------6-6-------6-6-|--------------------|------3-3---------3-3-|------------------------|
B|---------8-8-------8-8-|------4-4-------4-4-|------4-4---------4-4-|------6-6-------6-------|
G|-------8---------8-----|------5-5-------5-5-|----5-----------5-----|------7-7-------7-------|   
D|-----8---------8-------|----6---------6-----|--5-----------5-------|----8---------8---------|
A|---6---------6---------|--6---------6-------|3-----------3---------|--8---------8-----------|
E|-----------------------|4---------4---------|----------------------|6---------6-------------|

[Pre-chorus]

e|---4---(3)---1------6---(4)---3--|----2------1------6------6-------|
B|---4---(3)---1------6---(4)---4--|----4------3------8------6-------|
G|---5---(3)---1------7---(5)---5--|----4------3------8------7-------|
D|---6---(5)---3------8---(6)---5--|----4------3------8------8-------|
A|---6---(5)---3------8---(6)---3--|----2------1------6------8-------|
E|---4---(3)---1------6---(4)---3--|----2------1------6------6-------|


[Chorus]

e|-----6---6---8---8--|---4---4---4---4--|---3---3---6---6--|----4---4----6--6------|
B|-----8---8---8---8--|---4---4---4---4--|---4---4---6---6--|----4---4----6--6------|
G|-----8---8---8---8--|---5---5---5---5--|---5---5---7---7--|----5---5----7--7------|
D|-----8---8---8---8--|------------------|---5---5----------|-----------------------|   (x3)
A|---6---6---6---6----|---6---6---6---6--|-3---3-----8---8--|----6---6----8--8------|
E|--------------------|--4---4---4---4---|----------6---6---|--4---4----6---6-------|


[Post-chorus]

e|-------6-----6-|-------------|------3-----3-|-----.---------------|
B|-------8-----8-|-----4----4--|------4-----4-|-----6-----6---------|
G|---------------|-----5----5--|--------------|-----7-----7---------|
D|-----8-----8---|-------------|----5-----5---|---------------------|
A|---6-----6-----|---6----6----|--3-----3-----|---8-----8-----------|
E|---------------|-4----4------|--------------|6------6-------------|


**same for verse 2, 2nd pre-chorus and 2nd chorus


[Bridge]

e|--3---1---4-6---------|
B|--3---3---4-8---------|
G|--4---3---5-8---------|
D|--5---3---6-8---x2----|
A|--5---1---6-6---------|
E|--3---1---4-6---------|

from here on I usually move into strumming chords for the rest of the bridge

strumming pattern:  d  d u  d  d u  d  d u   u d u

Cm   Bb       Ab       Eb  
 Redemption's not that far,  
Cm    Bb          Ab    Eb
  and darkness is going down. 

Cm    Bb      Ab      Eb   
 This room is far too dark 
Cm   Bb    Ab     Eb
 for us to stay around.
Cm   Bb       Ab       Eb  
 Redemption's not that far,  
Cm    Bb          Ab    Eb
 and darkness is going down.


[Pre-chorus]

e|-------6-----6-|------------|------3-------|---------------|
B|-------8-----8-|-----4----4-|------4-----6-|----4-----6----|
G|---------------|-----5----5-|------------7-|----5-----7----|
D|-----8-----8---|------------|----5---------|---------------|
A|---6-----6-----|---6----6---|--3-------8---|--6-----8------|
E|---------------|-4----4-----|--------6-----|4-----6--------|



[Chorus and outro]

e|-----6---6---8---8--|---4---4---4---4--|---3---3---6---6--|----4---4----6--6------|
B|-----8---8---8---8--|---4---4---4---4--|---4---4---6---6--|----4---4----6--6------|
G|-----8---8---8---8--|---5---5---5---5--|---5---5---7---7--|----5---5----7--7------|
D|-----8---8---8---8--|------------------|---5---5----------|-----------------------|   (x3)
A|---6---6---6---6----|---6---6---6---6--|-3---3-----8---8--|----6---6----8--8------|
E|--------------------|--4---4---4---4---|----------6---6---|--4---4----6---6-------|






Suggest correction
Give kudos to tab author, rate the tab!
1 2 3 4 5
comments
print report bad tab
guest
You may want to rate the tab now too:
select rating
Wanna post a correction for this tab? Suggest correction