Oops, an error
Loading. Please wait.
We have an official Goner tab made by UG professional guitarists. Check out the tab »
×
26,253 views 153 this week
7 commentsread comments
1 2 3 4 5
x 67
add to favorites
×
Save as Personal and add changes to this tab that will be seen only by you. Learn more ›
×
You can save this tab as Personal to edit and correct it or add notes. All changes will be seen only by you. Learn more »
launch autoscroll
font size
0
reset
how to read this tab
guitar tuner
edit
Autoscroll
slow
fast
+/-
esc
set tempo
stop
Author
Difficulty
[Intro]

e|---------------------------------------------------------------------------|
B|-----2---2--------------------------2---2----------------------------------|
G|---2---2---1--------2---2---------2---2---1---------2---2------------------|
D|------------------4---4---2-----------------------4---4---2----------------|
A|---------------------------------------------------------------------------|
E|---------------------------------------------------------------------------|


[Verse]

e|---------------------------------------------------------------------------|
B|-----2---2--------------------------2---2----------------------------------|
G|---2---2---1--------2---2---------2---2---1---------2---2------------------|         x2
D|------------------4---4---2-----------------------4---4---2----------------|
A|---------------------------------------------------------------------------|
E|---------------------------------------------------------------------------|
    I'm a goner     Somebody...     I'm...          Somebody...
    I wanna be...   By you          I wanna be...   By you


[Chorus]

e|---------------------------------------------------------------------------|
B|---------------------------2-----------------------------------------------|
G|-----2----------------------------------1----------------------------------|         x2 (only
D|-----------------4---------------------------------------------------------|         on the
A|---------------------------------------------------------------------------|         2nd time)
E|---------------------------------------------------------------------------|
     Though...    Weak...   Beat...      Down...
     Slip         -way...   -to...       Sound...
     Ghost...     You...    Close...     Me...
     Inside   -   out...    Under   -    Neath


repeat intro, then verse tabs with the second verse lyrics. Repeat chorus


[Bridge]

e|---------------------------------------------------------------------------|
B|---------------------------------------------------------------------------|
G|---1----1--1---1--1----------(echo these notes)----------------------------|         x4
D|---------------------------------------------------------------------------|
A|---------------------------------------------------------------------------|
E|---------------------------------------------------------------------------|
    Don't let me be gone...


[Ending]
                      F#m  E    D    A
                       (x6) (x3) (x6) (x3)
e|---------------------2----0----2----0--------------------------------------|
B|---------------------2----0----1----2--------------------------------------|
G|---------------------2----1----2----2--------------------------------------|         x4
D|---------------------4----2----0----2--------------------------------------|
A|---------------------4----2----x----0--------------------------------------|
E|---------------------2----0----x----x--------------------------------------|
    DON'T LET ME BE!  


repeat those last four chords to the first verse, but last chord will only be played once.


************************************

| x  Dead note

************************************


note: sorry this is so bad. this is how i play it and it's hard to explain without a visual. try listening to
the song to see how it all fits in and is played. this is only my first tab, so my
apologies. |-/



            
            
Suggest correction
Creating personal tab
Creating personal tab
You can edit any tab online and save it as your Personal.

You can edit, replace or remove any tab part or add personal notes – all changes will be seen only by you.

Personal tabs can be accessed anytime from any device, even offline.
Learn more »
comments
print report bad tab
7 comments total. Showing first comments.
+5 reply
0hmikeyclifford 134 Mar 08, 2016 04:18 AM

This is perfect omg

0 reply
abbyiero 69 Mar 09, 2016 11:49 AM

Thank you so much! It means a lot! It wasn't too difficult, especially compared to Fake You Out which I'm tabbing currently. Obviously it's just the piano part written for guitar, so transating was easy. Thanks again!

+2 reply
Theretropancake 38 Jun 13, 2016 03:19 PM

This is a really well done tab and I've been looking for something like this for a while. Thanks! |-/

guest
You may want to rate the tab now too:
select rating
Wanna post a correction for this tab? Suggest correction