Oops, an error
Loading. Please wait.
We have an official Goner tab made by UG professional guitarists. Check out the tab »
×

Goner chords

version 4
version 4

Whole song

Interactive

11,193 views 51 this week
1 commentread comment
1 2 3 4 5
x 7
add to favorites
×
Save as Personal and add changes to this tab that will be seen only by you. Learn more ›
×
You can save this tab as Personal to edit and correct it or add notes. All changes will be seen only by you. Learn more »
launch autoscroll
font size
0
reset
transpose
0
reset
simplify chords
display chords
guitar tuner
edit
Autoscroll
slow
fast
+/-
esc
set tempo
stop
Author
Difficulty
intermediate
Strumming
There is no strumming pattern for this song yet. and get +5 IQ
-------------------------------------------------------------------------------
                            Goner - Twenty One Pilots
-------------------------------------------------------------------------------
Tabbed by: beerwin

Tuning: standard

First tab/chords so I hope I got it right, feel free to leave corrections in the comments down below.
If you don't want to play the tab in the verses, you can look at the very last verse at 
the bottom and just play those chords.
Thanks to my wonderful friend Noek for helping me c:

Used chords:

   A/C#    D     F#m    E     A
e|--0------2------2-----0-----0--|
B|--2------3------2-----0-----2--|
G|--2------2------2-----1-----2--|
D|--2------0------4-----2-----2--|
A|--4------x------4-----2-----0--|
E|--x------x------2-----0-----x--|

The tab is played throughout the verses.
If you listen to the song, it isn't hard to figure out.

[Riff]
e|---------------------------------------------------------------------------|
B|----2-----2----------------------------------------------------------------|
G|-2-----2-----1---------2-----2---------------------------------------------|
D|--------------------4-----4-----2------------------------------------------|
A|---------------------------------------------------------------------------|
E|---------------------------------------------------------------------------|

[Intro] [Riff] 2x

[Verse]

I'm a goner, somebody catch my breath
I'm a goner, somebody catch my breath

I wanna be known, by you
I wanna be known, by you

I'm a goner, somebody catch my breath
I'm a goner, somebody catch my breath

I wanna be known, by you
I wanna be known, by you


[Chorus]

A/C#       D     F#m    E                   
Though I'm weak, beaten down
     A/C#  D     F#m    E
I'll slip away into the sound
    A/C#     D      F#m      E
The ghost of you is close to me
    A/C#   D          F#m  E
I'm inside out you're underneath

e|---------------------------------------------------------------------------|
B|----2-----2----------------------------------------------------------------|
G|-2-----2-----1---------2-----2---------------------------------------------|
D|--------------------4-----4-----2------------------------------------------|
A|---------------------------------------------------------------------------|
E|---------------------------------------------------------------------------|

[Verse]

[Riff] 2x
    
I've got two faces, blurry is the one I'm not
I've got two faces, blurry is the one I'm not

I need your help to, take him out 
I need your help to, take him out 


[Chorus]

A/C#       D         F#m    E
Though I'm weak, and beaten down
     A/C#  D     F#m    E
I'll slip away into the sound
    A/C#     D      F#m      E
The ghost of you is close to me
    A/C#   D          F#m  E
I'm inside out you're underneath

A/C#       D         F#m    E
Though I'm weak, and beaten down
     A/C#  D     F#m    E
I'll slip away into the sound
    A/C#     D      F#m      E
The ghost of you is close to me
    A/C#   D          F#m  E
I'm inside out you're underneath


[Brigde]

      A/C#      D    F#m    E
Don't let me be gone
      A/C#      D    F#m    E
Don't let me be gone
      A/C#      D    F#m    E
Don't let me be gone
      A/C#      D    F#m    E
Don't let me be gone

Don't let me be   

A/C#    D    F#m   
A/C#    D    F#m    E

      A/C#      D    F#m    E
Don't let me be
A/C#   D      F#m  E      
Ooooooooooh   yeeeaaah
E


[Verse] w/ chords

F#m   E      D        A
I'm a goner, somebody catch my breath
F#m   E      D        A
I'm a goner, somebody catch my breath
F#m     E        D  A
I wanna be known by you
F#m     E        D  A
I wanna be known by you

End. |-/

            
            
Suggest correction
Creating personal tab
Creating personal tab
You can edit any tab online and save it as your Personal.

You can edit, replace or remove any tab part or add personal notes – all changes will be seen only by you.

Personal tabs can be accessed anytime from any device, even offline.
Learn more »
comments
print report bad tab
1 comment total.
0 reply
crystalawhite1 10 Dec 21, 2015 12:33 PM

This is the best version of Goner I've found. Made it really easy to change from guitar to ukulele for myself. Thanks so much

guest
You may want to rate the tab now too:
select rating
Wanna post a correction for this tab? Suggest correction