Oops, an error
Loading. Please wait.
We have an official Guns For Hands tab made by UG professional guitarists. Check out the tab »
×
10,300 views 18 this week
no commentswrite comment
1 2 3 4 5
x 8
add to favorites
×
Save as Personal and add changes to this tab that will be seen only by you. Learn more ›
×
You can save this tab as Personal to edit and correct it or add notes. All changes will be seen only by you. Learn more »
launch autoscroll
font size
0
reset
guitar tuner
edit
Autoscroll
slow
fast
+/-
esc
set tempo
stop
Even though there's no real bass guitar through most of the song, I still thought I'd 
tab it anyway.  This pretty much what the left hand keyboard plays in the intro:

|--------------------------------------------------------------------|
|--4-4-4-4--4-4-4-4-4--4---------------------------------------------|
|------------------------4-4-4-4--4-4-4-4-4--4-6-6-6-6--6------------|
|---------------------------------------------------------7-7-7-7----|

And the chorus is something like this.  Same basic pattern, just hold each note.

|--------------------------------------------------------------------|
|--4-----------------------------------------------------------------|
|-----------4--------6----------------4------------------------------|
|----------------------------7---------------------------------------|

Then there's a bass line before/during the rap verse, starts at about 3:01, then repeats 
at 3:23

|-----------------------------------------------------------------------|
|------------------------------------------------------10-12-10---------|
|-----8--10-12-10--8--10-----7--10-12-10--8--7--8--12------------12--8--|
|-10----------------------8---------------------------------------------|

|-----------------------------------------------------------------------|
|-----------------------------------------------------------------------|
|----7--10-12-10--8--7--------------------------------------------------|
|-8---------------------8-----------------------------------------------|
Suggest correction
Creating personal tab
Creating personal tab
You can edit any tab online and save it as your Personal.

You can edit, replace or remove any tab part or add personal notes – all changes will be seen only by you.

Personal tabs can be accessed anytime from any device, even offline.
Learn more »
comments
print report bad tab
guest
Wanna post a correction for this tab? Suggest correction