Oops, an error
Loading. Please wait.
We have an official Guns For Hands tab made by UG professional guitarists. Check out the tab »
×

Guns For Hands ukulele

version 4
version 4

Whole song

Interactive

85 views 9 this week
no commentswrite comment
1 2 3 4 5
3 more votes to show rating
add to favorites
×
Save as Personal and add changes to this tab that will be seen only by you. Learn more ›
×
You can save this tab as Personal to edit and correct it or add notes. All changes will be seen only by you. Learn more »
launch autoscroll
font size
0
reset
transpose
0
reset
display chords
guitar tuner
edit
Autoscroll
slow
fast
+/-
esc
set tempo
stop
About this tab version
This version shows tabbed choruses and verses for Uke players who find the chord only versions on this site too easy. Single strums on the bridge. The 4-4 on the chorus and intro and the 2-6, 2-4 on verse 2 are played very close together very fast. Was this info helpful? Yes No
Strumming Is this strumming pattern correct? Yes No
Pre Chorus 130 bpm
1
&
2
&
3
&
4
&
Listen
[Intro] (x2)
A|---------------------------------------------------------------|
E|---4-4-4-4--6--4-6---6-6-------6--4-6--------------------------|
C|---------------------------------------------------------------|
G|-------------------6-----8--6----------------------------------| (x3)

A|---------------------------------------------------------------|
E|---4-4-4-4--6--4-6----------6--4-------------------------------|
C|---------------------------------------------------------------|
G|-------------------6-6-6--6------------------------------------| (x1)

[Verse 1] (x2)
A|---------------------------------------------------------------|
E|----6--6--6--6--6--6--6--6---4--4--4--4--4--4--4--4------------|
C|---------------------------------------------------------------|
G|---6--6--6--6--6--6--6--6--6--6--6--6--6--6--6--6--------------|

A|---------------------------------------------------------------|
E|-----2--2--2--2--2--2--2--26-26-26-26-24-14-14-14-14-----------|
C|---------------------------------------------------------------|
G|---6--6--6--6--4--4--4--4--------------------------------------|

[Pre-Chorus]
B           F          C
That you all have guns, and you never put the safety on.
Gm          F          C
And you all have plans, to take it, to take it, don't take it, take it, take it.

[Chorus] (x2)
A|---------------------------------------------------------------|
E|---4-4-4-4--6--4-6---6-6-------6--4-6--------------------------|
C|---------------------------------------------------------------|
G|-------------------6-----8--6----------------------------------| (x3)

A|---------------------------------------------------------------|
E|---4-4-4-4--6--4-6----------6--4-------------------------------|
C|---------------------------------------------------------------|
G|-------------------6-6-6--6------------------------------------| (x1)

[Verse 2] (x2)
A|---------------------------------------------------------------|
E|----6--6--6--6--6--6--6--6---4--4--4--4--4--4--4--4------------|
C|---------------------------------------------------------------|
G|---6--6--6--6--6--6--6--6--6--6--6--6--6--6--6--6--------------|

A|---------------------------------------------------------------|
E|-----2--2--2--2--2--2--2--2-6-2-6-2-6-2-6-2-4-1-4-1-4-1-4-1-4--|
C|---------------------------------------------------------------|
G|---6--6--6--6--4--4--4--4--------------------------------------|

[Pre-Chorus]
B           F          C
That you all have guns, and you never put the safety on.
Gm          F          C
And you all have plans, to take it, to take it, don't take it, take it, take it.

[Chorus]
A|---------------------------------------------------------------|
E|---4-4-4-4--6--4-6---6-6-------6--4-6--------------------------|
C|---------------------------------------------------------------|
G|-------------------6-----8--6----------------------------------| (x3)

A|---------------------------------------------------------------|
E|---4-4-4-4--6--4-6----------6--4-------------------------------|
C|---------------------------------------------------------------|
G|-------------------6-6-6--6------------------------------------| (x1)

[Bridge]
Dm
Dm B F C (x2)
Dm
We've turned our hands to guns, trade in our thumbs for ammunition.
B
I must forewarn you of my disorder, my condition.
F
'Cause when the sun sets, it upsets what's left of my invested interest,
C
Interested in putting my fingers to my head.
Dm
The solution is I see a whole room of these mutant kids,
B
Fused at the wrist I simply tell them they should shoot at this.
F
Simply suggest my chest and this confused music is
C                                                     
Obviously best for them to turn their guns to a fist.

A|---------------------------------------------------------------|
E|---6--6--6--6--------------------------------------------------|
C|----6--6--6--6--6--6--6--6-------------------------------------|
G|---------------6--6--6--6--------------------------------------|

A|---------------------------------------------------------------|
E|---4-4-4-4--6--4-6---6-6-------6--4-6--------------------------|
C|---------------------------------------------------------------|
G|-------------------6-----8--6----------------------------------|

A|---------------------------------------------------------------|
E|---4-4-4-4--6--4-6---------------------------------------------|
C|---------------------------------------------------------------|
G|-------------------6-------------------------------------------|

[Chorus]
A|---------------------------------------------------------------|
E|---4-4-4-4--6--4-6---6-6-------6--4-6--------------------------|
C|---------------------------------------------------------------|
G|-------------------6-----8--6----------------------------------| (x3)

A|---------------------------------------------------------------|
E|---4-4-4-4--6--4-6----------6--4-------------------------------|
C|---------------------------------------------------------------|
G|-------------------6-6-6--6------------------------------------| (x1)

            
            
Suggest correction
Creating personal tab
Creating personal tab
You can edit any tab online and save it as your Personal.

You can edit, replace or remove any tab part or add personal notes – all changes will be seen only by you.

Personal tabs can be accessed anytime from any device, even offline.
Learn more »
Give kudos to tab author, rate the tab!
1 2 3 4 5
comments
print report bad tab
guest
You may want to rate the tab now too:
select rating
Wanna post a correction for this tab? Suggest correction