Oops, an error
Loading. Please wait.
We have an official Heathens tab made by UG professional guitarists. Check out the tab »
×

Heathens intro tab

version 1
version 1

Intro

  • Easy fingering positions and is more accurate.
  • Just the intro and sounds preety accurate to the melody.
  • This is a higher octave than most other tabs.

Whole song

  • As played by Kfir Ochaion (https://www.youtube.com/watch?v=C9T96p51WZI).
  • This is the full song arranged for guitar. Piano p... Show more
  • Full fingerstyle arrangement by Andrew Foy.
40,801 views 255 this week
6 commentsread comments
1 2 3 4 5
x 105
add to favorites
×
Save as Personal and add changes to this tab that will be seen only by you. Learn more ›
×
You can save this tab as Personal to edit and correct it or add notes. All changes will be seen only by you. Learn more »
launch autoscroll
font size
0
reset
how to read this tab
guitar tuner
edit
Autoscroll
slow
fast
+/-
esc
set tempo
stop
Author
Difficulty
kinda the intro also the chorus |-/

STANDARD TUNING - EADGBe

[Intro]
e|---------------------------------------------------------------------------|
B|---------------------------------------------------------------------------|
G|---------------------------------------------------------------------------|
D|---------------------------------------------------------------------------|
A|---2--3--2-----2--3--2-------------2--3--2-----2--3--2---------------------|
E|------------3-----------3--0----------------3-----------3--0---------------|

e|---------------------------------------------------------------------------|
B|---------------------------------------------------------------------------|
G|---------------------------------------------------------------------------|
D|---------------------------------------------------------------------------|
A|---7--5--3--7--5--3--5--7--2-------7--5--3--7--5--3-3--5--7--2-------------|
E|---------------------------------------------------------------------------|

************************************

| x   Dead note
| g   Grace note
| (n) Ghost note
| h   Hammer-on
| p   Pull-off
| r   Release
| >   Accented note
| t   Tapping
| b   Bend
| br  Bend release
| pb  Pre-bend
| pbr Pre-bend release
| /   Slide up
| \   Slide down
| ~   Vibrato
| s   Slap
| P   Pop
| PM  Palm mute
| TR  Trill
| N   Tremolo

************************************

            
            
Suggest correction
Creating personal tab
Creating personal tab
You can edit any tab online and save it as your Personal.

You can edit, replace or remove any tab part or add personal notes – all changes will be seen only by you.

Personal tabs can be accessed anytime from any device, even offline.
Learn more »
comments
print report bad tab
6 comments total. Showing first comments.
+6 reply
Guitar Player21 241 Jul 06, 2016 09:38 AM

That is really accurate good job!

+2 reply
Tomas_Broderick 46 Aug 01, 2016 08:53 PM

nice tab dude

+7 reply
brookeecandyy 97 Aug 04, 2016 08:11 PM, edited on August 5 2016, 12:14 am

love it, can also be played on the b,g and d string for an octive higher

B|-----0--1--0---------0--1--0--
G|-----------------0---------------0---
D|---------------------------------------2

guest
You may want to rate the tab now too:
select rating
Wanna post a correction for this tab? Suggest correction