Oops, an error
Loading. Please wait.
We have an official Heathens tab made by UG professional guitarists. Check out the tab »
×

Heathens intro tab

version 4
version 4

Intro

  • Easy fingering positions and is more accurate.
  • Just the intro and sounds preety accurate to the melody.
  • This is a higher octave than most other tabs.

Whole song

  • As played by Kfir Ochaion (https://www.youtube.com/watch?v=C9T96p51WZI).
  • This is the full song arranged for guitar. Piano p... Show more
  • Full fingerstyle arrangement by Andrew Foy.
1,861 views 6 this week
no commentswrite comment
1 2 3 4 5
x 5
add to favorites
×
Save as Personal and add changes to this tab that will be seen only by you. Learn more ›
×
You can save this tab as Personal to edit and correct it or add notes. All changes will be seen only by you. Learn more »
launch autoscroll
font size
0
reset
how to read this tab
guitar tuner
edit
Autoscroll
slow
fast
+/-
esc
set tempo
stop
Author
About this tab version
Just the intro and sounds preety accurate to the melody. Was this info helpful? Yes No
[Intro]

e|---------------------------------------------------------------------------|
B|--0-1-0---0--1-0----0------------------------------------------------------|
G|--------0--------0---------------------------------------------------------|
D|---------------------------------------------------------------------------|
A|---------------------------------------------------------------------------|
E|---------------------------------------------------------------------------|(x2)
   all my freind's are heathens take it slow 
   wait for them to ask you who you know

e|--0----------------0--------------0----------------------------------------|
B|-------3------1-------3----1---------0-------------------------------------|
G|---------------------------------------------------------------------------|
D|---------------------------------------------------------------------------|
A|---------------------------------------------------------------------------|
E|---------------------------------------------------------------------------|
 please don't male any sudden move


e|-0------------0------------0-----------------------------------------------|
B|-----3----1-----3----1-1-------0-------------------------------------------|
G|---------------------------------------------------------------------------|
D|---------------------------------------------------------------------------|
A|---------------------------------------------------------------------------|
E|---------------------------------------------------------------------------|
 you dont know the half of the abuse

            
            
Suggest correction
Creating personal tab
Creating personal tab
You can edit any tab online and save it as your Personal.

You can edit, replace or remove any tab part or add personal notes – all changes will be seen only by you.

Personal tabs can be accessed anytime from any device, even offline.
Learn more »
comments
print report bad tab
guest
You may want to rate the tab now too:
select rating
Wanna post a correction for this tab? Suggest correction