Oops, an error
Loading. Please wait.

Heathens Tab

version 1
version 1

Solo

Whole song

  • As played by Kfir Ochaion (https://www.youtube.com/watch?v=C9T96p51WZI).

Interactive

676 views 150 this week
no commentswrite comment
1 2 3 4 5
x 5
add to favorites
launch autoscroll
font size
0
reset
how to read this tab
guitar tuner
Autoscroll
slow
fast
+/-
esc
set tempo
stop
Help us to improve Ultimate-Guitar.com Take our survey!
×
Author
Difficulty
[Intro]  (x2)

e|---------------------------------------------------------------------------|
B|---0-1-0---0-1-0---------0-1-0---0-1-0-------------------------------------|
G|---------0-------0-------------0-------0-----------------------------------|
D|-------------------2---------------------2---------------------------------|
A|---------------------------------------------------------------------------|
E|---------------------------------------------------------------------------|

e|---0-------0-----------------0-------0-------------------------------------|
B|-----3-1-----3-1---3\5p0-------3-1-----3-1-1--3\5p0------------------------|
G|---------------------------------------------------------------------------|
D|---------------------------------------------------------------------------|
A|---------------------------------------------------------------------------|
E|---------------------------------------------------------------------------|


[Verse 1] (x2)    *Play on the second time

e|---------------------------------------------------------------------------|
B|---0-----------------------------------------------------------------------|
G|-----2--2-2-2-2-2-2-2-2-2-2-2-2-2-2p0--------2p0---------------------------|
D|--------------------------------------0---0*-----0-------------------------|
A|---------------------------------------------------------------------------|
E|---------------------------------------------------------------------------|

e|---------------------------------------------------------------------------|
B|---------------------------------------------------------------------------|
G|---------------------------------------------------------------------------|
D|---------------------------------------------------------------------------|
A|---------------------------------------------------------------------------|
E|---------------------------------------------------------------------------|


[Pre-chorus]

e|---------------------------------------------------------------------------|
B|---0-0-0-0-0-------------------0-0-0-0-------------------------------------|
G|-------------2-2-2-2p0-----------------2-2-2-2p0---------------------------|
D|-----------------------2-------------------------2-------------------------|
A|---------------------------------------------------------------------------|
E|---------------------------------------------------------------------------|

e|-----------------------------------3-2------3-2----------------------------|
B|---0-0-0-0-3-0-----------------0--------0----------------------------------|
G|---------------2-2-2-2p0---------2--------2--------------------------------|
D|-------------------------2-------------------------------------------------|
A|---------------------------------------------------------------------------|
E|---------------------------------------------------------------------------|

  [Chorus]

e|---------------------------------------------------------------------------|
B|---0-1-0---0-1-0---------0-1-0---0-1-0-------------------------------------|
G|---------0-------0-------------0-------0-----------------------------------|
D|-------------------2---------------------2---------------------------------|
A|---------------------------------------------------------------------------|
E|---------------------------------------------------------------------------|

e|---0-------0-----------------0-------0-------------------------------------|
B|-----3-1-----3-1---3\5p0-------3-1-----3-1-1--3\5p0------------------------|
G|---------------------------------------------------------------------------|
D|---------------------------------------------------------------------------|
A|---------------------------------------------------------------------------|
E|---------------------------------------------------------------------------|

 [Verse 2]

e|---------------------------------------------------------------------------|
B|--------------------------------------------0---0---0---0------------------|
G|---2-0-2-0-0-0-0-0---2-0-2-0-0-0-0-0----------2---0---2---0----------------|
D|---------------------------------------------------------------------------|
A|---------------------------------------------------------------------------|
E|---------------------------------------------------------------------------|

e|---------------------------------------------------------------------------|
B|---0---0---0---0-----------------------------------------------------------|
G|-----2---0---2---0---------------------------------------------------------|
D|---------------------------------------------------------------------------|
A|---------------------------------------------------------------------------|
E|---------------------------------------------------------------------------|

[Pre-chorus]

e|---------------------------------------------------------------------------|
B|---0-0-0-0-0-------------------0-0-0-0-------------------------------------|
G|-------------2-2-2-2p0-----------------2-2-2-2p0---------------------------|
D|-----------------------2-------------------------2-------------------------|
A|---------------------------------------------------------------------------|
E|---------------------------------------------------------------------------|

e|-----------------------------------3-2------3-2----------------------------|
B|---0-0-0-0-3-0-----------------0--------0----------------------------------|
G|---------------2-2-2-2p0---------2--------2--------------------------------|
D|-------------------------2-------------------------------------------------|
A|---------------------------------------------------------------------------|
E|---------------------------------------------------------------------------|

[Chorus]

e|---------------------------------------------------------------------------|
B|---0-1-0---0-1-0---------0-1-0---0-1-0-------------------------------------|
G|---------0-------0-------------0-------0-----------------------------------|
D|-------------------2---------------------2---------------------------------|
A|---------------------------------------------------------------------------|
E|---------------------------------------------------------------------------|

e|---0-------0-----------------0-------0-------------------------------------|
B|-----3-1-----3-1---3\5p0-------3-1-----3-1-1--3\5p0------------------------|
G|---------------------------------------------------------------------------|
D|---------------------------------------------------------------------------|
A|---------------------------------------------------------------------------|
E|---------------------------------------------------------------------------|


[Outro]

e|---------------------------------------------------------------------------|
B|---0-1-0---0-1-0---------0-1-0---0-1-0-------------------------------------|
G|---------0-------0----(0)-------0-------0----------------------------------|
D|-------------------2----------------------2--------------------------------|
A|---------------------------------------------------------------------------|
E|---------------------------------------------------------------------------|


e|---0--------0----------------0--------0------------------------------------|
B|-----3-1------3-1-1-1-1p0------3-1------3-1-1-1-1p0------------------------|
G|---------------------------------------------------------------------------|
D|---------------------------------------------------------------------------|
A|---------------------------------------------------------------------------|
E|---------------------------------------------------------------------------|


 

************************************

| p    Pull-off
| \    Slide down 
| (n)  Ghost note

************************************
Suggest correction
comments
print report bad tab
guest
You may want to rate the tab now too:
select rating
Wanna post a correction for this tab? Suggest correction