Oops, an error
Loading. Please wait.
We have an official Heathens tab made by UG professional guitarists. Check out the tab »
×

Heathens tab

version 1
version 1

Whole song

  • As played by Kfir Ochaion (https://www.youtube.com/watch?v=C9T96p51WZI).
  • This is the full song arranged for guitar. Piano p... Show more
  • Full fingerstyle arrangement by Andrew Foy.

Video

68,161 views 387 this week
5 commentsread comments
1 2 3 4 5
x 19
add to favorites
×
Save as Personal and add changes to this tab that will be seen only by you. Learn more ›
×
You can save this tab as Personal to edit and correct it or add notes. All changes will be seen only by you. Learn more »
launch autoscroll
font size
0
reset
how to read this tab
guitar tuner
edit
Autoscroll
slow
fast
+/-
esc
set tempo
stop
Author
Difficulty
Heathens by twenty one pilots from the Suicide Squad Soundtrack. this is in standard tuning. 
Please rate and comment. Feel free to correct it if needed. HAVE FUN. Wow its the first tab
for this song. :o 
Hope its not confusing. 


CHORD TABS :D
 
  C x32010
 Am x03310
 Em 022000
 B7 x21202
 

[First Chorus/Intro]
    All my friends are heathens...
e|---------------------------------------------------------------------------|
B|-------------------------------------------------------3-1-----------------|
G|-4---4---5---5---1---1---1---1---4---4---5---5---1---1-----4---------------|
D|---2---2---2---2---2---2---2---2---2---2---2---2---2-----------------------|
A|---------------------------------------------------------------------------|
E|---------------------------------------------------------------------------|

e|---------------------------------------------------------------------------|
B|---------------------------------------------------------------------------|
G|-4---4---5---5---1---1---1---1---4---4---5---5---1---1---------------------|
D|---2---2---2---2---2---2---2---2---2---2---2---2---2---2-------------------|
A|---------------------------------------------------------------------------|
E|---------------------------------------------------------------------------|


[Chorus]
    All my friends are heathens...          (I'm not sure how many times you play that)
e|-0-0-0-0-0-0-0-0-0-0-0-0-0-0-0-0-0-0-0-0-0-0-0-0-0-0-0-0-0-0-0-0-0-0-0-0-0-|
B|---------------------------------------------------------------------------|
G|---------------------------------------------------------------------------|
D|---------------------------------------------------------------------------|
A|---------------------------------------------------------------------------|
E|---------------------------------------------------------------------------|

    Please don't make...
e|---------------------------------------------------------------------------|
B|---------------------------------------------------------------------------|
G|-4---4---5---5---1---1---1---1---4---4---5---5---1---1---------------------|
D|---2---2---2---2---2---2---2---2---2---2---2---2---2---2-------------------|
A|---------------------------------------------------------------------------|
E|---------------------------------------------------------------------------|

e|---------------------------------------------------------------------------|
B|-------------------------------------------------------3-1-----------------|
G|-4---4---5---5---1---1---1---1---4---4---5---5---1---1-----4---------------|
D|---2---2---2---2---2---2---2---2---2---2---2---2---2-----------------------|
A|---------------------------------------------------------------------------|
E|---------------------------------------------------------------------------|



[Verse]
C
Welcome to the room of people
                                   Em
Who have rooms of people that they loved one day

Docked away
Am  
Just because we check the guns at the door
                 Em
Doesn't mean our brains will change from hand grenades
C                       Am                         Em
  You'll never know the psychopath sitting next to you
                                                 C
  You'll never know the murderer sitting next to you
                      Am                       B7
You'll think, how'd I get here sitting next to you?


But after all I've said, please don't forget
e|---------------15-14----------------15-14----------------------------------|
B|-12-12-12--12-----------12-----12------------------------------------------|
G|---------------------------------------------------------------------------|
D|---------------------------------------------------------------------------|
A|---------------------------------------------------------------------------|
E|---------------------------------------------------------------------------|




[Chorus]
    All my friends are heathens...          
e|-0-0-0-0-0-0-0-0-0-0-0-0-0-0-0-0-0-0-0-0-0-0-0-0-0-0-0-0-0-0-0-0-0-0-0-0-0-|
B|---------------------------------------------------------------------------|
G|---------------------------------------------------------------------------|
D|---------------------------------------------------------------------------|
A|---------------------------------------------------------------------------|
E|---------------------------------------------------------------------------|

    Please don't make...
e|---------------------------------------------------------------------------|
B|---------------------------------------------------------------------------|
G|-4---4---5---5---1---1---1---1---4---4---5---5---1---1---------------------|
D|---2---2---2---2---2---2---2---2---2---2---2---2---2---2-------------------|
A|---------------------------------------------------------------------------|
E|---------------------------------------------------------------------------|

e|---------------------------------------------------------------------------|
B|-------------------------------------------------------3-1-----------------|
G|-4---4---5---5---1---1---1---1---4---4---5---5---1---1-----4---------------|
D|---2---2---2---2---2---2---2---2---2---2---2---2---2-----------------------|
A|---------------------------------------------------------------------------|
E|---------------------------------------------------------------------------|


[Verse]
C 
  We don't deal with outsiders very well
Em
  They say newcomers have a certain smell
Am
  You have trust issues, not to mention
Em
  They say they can smell your intentions
C                       Am                        Em 
  You'll never know the freakshow sitting next to you
                                                C
  You'll have some weird people sitting next to you
                        Am                        B7
  You'll think "How'd I get here, sitting next to you"

  But after all I've said, please don't forget
e|-----------------x-x---|
B|-----------------x-x---|
G|-----------------x-x---|
D|-----------------x-x---|
A|-----------------x-x---|
E|-2-2-2-2-2-2-2-2-x-x---|


[Solo thing]
e|------8-7-x-x------8-7-------------------------------------------------------|
B|---10-----x-x---10-----------------------------------------------------------|
G|-9--------x-x-9--------------------------------------------------------------|
D|----------x-x----------------------------------------------------------------|
A|----------x-x----------------------------------------------------------------|
E|----------x-x----------------------------------------------------------------|

e|-0-0-0-0-0-0-0-0-0-0-0-0-0-0-0-0-0-0-0-0-0-0-0-0-0-0-0-0-0-0-0-0-0-0-0-0-0-|
B|---------------------------------------------------------------------------|
G|---------------------------------------------------------------------------|
D|---------------------------------------------------------------------------|
A|---------------------------------------------------------------------------|
E|---------------------------------------------------------------------------|
 
Those are going on at the same time so if you have one guitar only play the top one.


[Chorus]
    All my friends are heathens...
e|---------------------------------------------------------------------------|
B|---------------------------------------------------------------------------|
G|-4---4---5---5---1---1---1---1---4---4---5---5---1---1---1---1-------------|
D|---2---2---2---2---2---2---2---2---2---2---2---2---2---2---2---2-----------|
A|---------------------------------------------------------------------------|
E|---------------------------------------------------------------------------|

e|---------------------------------------------------------------------------|
B|--------------------------------------------------------3-1----------------|
G|-4---4---5---5---1---1---1---1---4---4---5---5---1---1------4--------------|
D|---2---2---2---2---2---2---2---2---2---2---2---2---2---2-------------------|
A|---------------------------------------------------------------------------|
E|---------------------------------------------------------------------------|

e|---------------------------------------------------------------------------|
B|---------------------------------------------------------------------------|
G|-4---4---5---5---1---1---1---1---4---4---5---5---1---1---1---1-------------|
D|---2---2---2---2---2---2---2---2---2---2---2---2---2---2---2---2-----------|
A|---------------------------------------------------------------------------|
E|---------------------------------------------------------------------------|

e|---------------------------------------------------------------------------|
B|--------------------------------------------------------3-1----------------|
G|-4---4---5---5---1---1---1---1---4---4---5---5---1---1------4--------------|
D|---2---2---2---2---2---2---2---2---2---2---2---2---2---2-------------------|
A|---------------------------------------------------------------------------|
E|---------------------------------------------------------------------------|


Stop playing until...

   And now They're outside...
e|---------------------------------------------------------------------------|
B|---------------------------------------------------------------------------|
G|-4---4---5---5---1---1---1---1---4---4---5---5---1---1---1---1-------------|
D|---2---2---2---2---2---2---2---2---2---2---2---2---2---2---2---2-----------|
A|---------------------------------------------------------------------------|
E|---------------------------------------------------------------------------|

e|---------------------------------------------------------------------------|
B|--------------------------------------------------------3-1----------------|
G|-4---4---5---5---1---1---1---1---4---4---5---5---1---1------4--------------|
D|---2---2---2---2---2---2---2---2---2---2---2---2---2---2-------------------|
A|---------------------------------------------------------------------------|
E|---------------------------------------------------------------------------|



************************************

| x  Dead note

************************************

            
            
Suggest correction
Creating personal tab
Creating personal tab
You can edit any tab online and save it as your Personal.

You can edit, replace or remove any tab part or add personal notes – all changes will be seen only by you.

Personal tabs can be accessed anytime from any device, even offline.
Learn more »
comments
print report bad tab
5 comments total. Showing first comments.
-2 reply
duvdeven 10 Oct 12, 2016 06:46 AM

didn't like this contribution

-2 reply
duvdeven 10 Oct 12, 2016 06:46 AM

Shitty tab over there

0 reply
2ndstudmuffin 10 Nov 04, 2016 08:08 AM

Does this have an annotation or link to youtube so i ccan see how fast or slow it plays

guest
You may want to rate the tab now too:
select rating
Wanna post a correction for this tab? Suggest correction