Oops, an error
Loading. Please wait.

Heathens Tab

version 2
version 2

Whole song

  • As played by Kfir Ochaion (https://www.youtube.com/watch?v=C9T96p51WZI).

Interactive

Video

682 views 57 this week
no commentswrite comment
1 2 3 4 5
3 more votes to show rating
add to favorites
launch autoscroll
font size
0
reset
how to read this tab
guitar tuner
Autoscroll
slow
fast
+/-
esc
set tempo
stop
Help us to improve Ultimate-Guitar.com Take our survey!
×
Author
Difficulty
intermediate
Title: Heathens
Artist: 21 Pilots
Tempo = 90
Electric Guitar


[Chorus]
e |----------------------------|-------|----------------------------|-------|
B |----------------------------|-------|----------------------------|-------|
G |--4--4g-4g----4--4g-4g------|-------|--4--4g-4g----4--4g-4g------|-------|
D |-----------5-----------5----|-------|-----------5-----------5----|-------|
A |----------------------------|--7----|----------------------------|--7----|
E |----------------------------|-------|----------------------------|-------|


e|----------------------------|----------------------------|
B|----------------------------|--5--5----------------------|
G|--7b-7g-5-----7b-7g-5-------|--------4-------------------|
D|----------------------------|----------------------------|
A|----------------------------|----------------------------|
E|----------------------------|----------------------------|


e|----------------------------|----------------------------|
B|----------------------------|--5--5----------------------|
G|--7b-7g-5-----7b-7g-5--5----|--------4-------------------|
D|----------------------------|----------------------------|
A|----------------------------|----------------------------|
E|----------------------------|----------------------------|


e|----------------------------|-------|----------------------------|-------|
B|----------------------------|-------|----------------------------|-------|
G|--4--4g-4g----4--4g-4g------|-------|--4--4g-4g----4--4g-4g------|-------|
D|-----------5-----------5----|-------|-----------5-----------5----|-------|
A|----------------------------|--7----|----------------------------|--7----|
E|----------------------------|-------|----------------------------|-------|


e|----------------------------|----------------------------|
B|----------------------------|--5--5----------------------|
G|--7b-7g-5-----7b-7g-5-------|--------4-------------------|
D|----------------------------|----------------------------|
A|----------------------------|----------------------------|
E|----------------------------|----------------------------|


e|----------------------------|----------------------------|
B|----------------------------|--5--5----------------------|
G|--7b-7g-5-----7b-7g-5--5----|--------4-------------------|
D|----------------------------|----------------------------|
A|----------------------------|----------------------------|
E|----------------------------|----------------------------|


[Verse]
e|----------------------------------------------------|
B|----------------------------------------------------|
G|----------------------------------------------------|
D|--9s-9--9--9--7s-7--7--7--7s-7--7--7--7s-7--7--7----|
A|----------------------------------------------------|
E|----------------------------------------------------|


e|-------------------------------------------------------------|
B|-------------------------------------------------------------|
G|-------------------------------------------------------------|
D|--7s----5--------------------7s----5-------------------------|
A|--------------7--------7-----------------7-------------------|
E|-------------------------------------------------------------|


e|----------------------------------------------------|
B|----------------------------------------------------|
G|----------------------------------------------------|
D|--9s-9--9--9--7s-7--7--7--7s-7--7--7--7s-7--7--7----|
A|----------------------------------------------------|
E|----------------------------------------------------|


e|-------------------------------------------------------------|
B|-------------------------------------------------------------|
G|-------------------------------------------------------------|
D|--7s----5--------------------7s----5-------------------------|
A|--------------7--------7-----------------7-------------------|
E|-------------------------------------------------------------|


e|----------------------------------------------------|
B|----------------------------------------------------|
G|----------------------------------------------------|
D|--9-----9--9--9--9--9--7-----7-----7--7--7--5-------|
A|----------------------------------------------------|
E|----------------------------------------------------|


e|-------------------------------------------------|
B|-------------------------------------------------|
G|-------------------------------------------------|
D|--9-----9--9--9--9--9--7-----7-----7--7--7--5----|
A|-------------------------------------------------|
E|-------------------------------------------------|


e|-------------------------------------------------------------------|
B|-------------------------------------------------------------------|
G|--------------------9----------------------------------------------|
D|--9-----9--9--9--9--------9--7--7--7--7--4-------------------------|
A|-------------------------------------------------------------------|
E|-------------------------------------------------------------------|


[Chorus]
e|-----------------3--2-----------------3--2----------|
B|----------------------------------------------------|
G|--------4--4--2--------------4--4--2----------------|
D|--4-------------------------------------------------|
A|----------------------------------------------------|
E|----------------------------------------------------|


e|----------------------------|-------|----------------------------|-------|
B|----------------------------|-------|----------------------------|-------|
G|--4--4g-4g----4--4g-4g------|-------|--4--4g-4g----4--4g-4g------|-------|
D|-----------5-----------5----|-------|-----------5-----------5----|-------|
A|----------------------------|--7----|----------------------------|--7----|
E|----------------------------|-------|----------------------------|-------|


e|----------------------------|----------------------------|
B|----------------------------|--5--5----------------------|
G|--7b-7g-5-----7b-7g-5-------|--------4-------------------|
D|----------------------------|----------------------------|
A|----------------------------|----------------------------|
E|----------------------------|----------------------------|


e|----------------------------|----------------------------|
B|----------------------------|--5--5----------------------|
G|--7b-7g-5-----7b-7g-5--5----|--------4-------------------|
D|----------------------------|----------------------------|
A|----------------------------|----------------------------|
E|----------------------------|----------------------------|


e|----------------------------------------------------|
B|----------------------------------------------------|
G|--14----12----14----12-12-12-12-12-11-12------------|
D|----------------------------------------------------|
A|----------------------------------------------------|
E|----------------------------------------------------|


e|----------------------------------------------------|
B|----------------------------------------------------|
G|--14----12----14----12-12-12-12-12-11-12------------|
D|----------------------------------------------------|
A|----------------------------------------------------|
E|----------------------------------------------------|


e|-------------------------------------------|
B|-------------------------------------------|
G|--16-14-16----16-14-16----16-14-16---------|
D|-----------------------------------14------|
A|-------------------------------------------|
E|-------------------------------------------|


e|-------------------------------------------------|
B|-------------------------------------------------|
G|--16-14-16----16-14-16-14-16-14-16-14-16---------|
D|-----------------------------------------14------|
A|-------------------------------------------------|
E|-------------------------------------------------|


e|----------------------------------------------|
B|----------------------------------------------|
G|--16----16-16-16-16-14----14-14-14-14-12------|
D|----------------------------------------------|
A|----------------------------------------------|
E|----------------------------------------------|


e|----------------------------------------------|
B|----------------------------------------------|
G|--16----16-16-16-16-14----14-14-14-14-12------|
D|----------------------------------------------|
A|----------------------------------------------|
E|----------------------------------------------|


e|-------------------------------------------------|
B|--------------------17---------------------------|
G|--14----14-14-14-14----14----14-14-14-14-11------|
D|-------------------------------------------------|
A|-------------------------------------------------|
E|-------------------------------------------------|


e|-----------------15----14-------------------15---------|
B|-----12-12-10-------------------12-12-10---------------|
G|--11---------------------------------------------------|
D|-------------------------------------------------------|
A|-------------------------------------------------------|
E|-------------------------------------------------------|


[Solo]
e|--14---------------------------|
B|-----------------15b-----------|
G|-------------------------------|
D|-------------------------------|
A|-------------------------------|
E|--------12s--------------------|


e|--------------------------------------------------------------------------------|
B|--15b---------15-12-------12----------------------------------------------------|
G|--------------------14-12----14-12-14b---14g---------12-11-12-11----11----------|
D|-----------------------------------------------------------------14----14-12----|
A|-----------------------------------------------------------------------------14-|
E|--------------------------------------------------------------------------------|


e|--------------------|--15b---------------------15-14-14b---14g---12------|
B|--------------------|-----------------------------------------------15---|
G|---11---------------|----------------------------------------------------|
D|12----14~-----------|----------------------------------------------------|
A|--------------------|----------------------------------------------------|
E|--------------------|----------------------------------------------------|

                                               [Chorus]
e|--15---------------------------------------|--19-19g19g17-19-19g19g17---|
B|-----15b---------15-12----12-15b-----------|----------------------------|
G|-----------------------14------------------|----------------------------|
D|-------------------------------------------|----------------------------|
A|-------------------------------------------|----------------------------|
E|-------------------------------------------|----------------------------|


e|-------|--19-19g19g17-19-19g19g17---|-------|----------------------------|
B|--17---|----------------------------|--17---|--15b15g15g13-15b15g15g13---|
G|-------|----------------------------|-------|----------------------------|
D|-------|----------------------------|-------|----------------------------|
A|-------|----------------------------|-------|----------------------------|
E|-------|----------------------------|-------|----------------------------|


e|----------------------------|----------------------------|
B|--17-17---------------------|--15b15g15g13-15b15g15g13---|
G|--------16------------------|----------------------------|
D|----------------------------|----------------------------|
A|----------------------------|----------------------------|
E|----------------------------|----------------------------|

                               [Solo]
e|----------------------------|-----------17b---17b17g17b17g--|
B|--17-17---------------------|-------------------------------|
G|--------16------------------|-------------------------------|
D|----------------------------|-------------------------------|
A|----------------------------|-------------------------------|
E|----------------------------|--12s--------------------------|


e|--17b---17b---17g---17b---17----15----15-15b--------|
B|-----------------------------------17---------------|
G|----------------------------------------------------|
D|----------------------------------------------------|
A|----------------------------------------------------|
E|----------------------------------------------------|


e|----------------------------------------------|----------|
B|--17-15----15-17-17-17b-----------------------|--17b17b--|
G|--------14------------------------------------|----------|
D|----------------------------------------------|----------|
A|----------------------------------------------|----------|
E|----------------------------------------------|----------|


e|--------------------------------------------------------------------------------|
B|--17-15----15-------------------------------------------------------------------|
G|--------14----16-14-16-14-12-14-12-11-12-11-------------------------------------|
D|--------------------------------------------14-14-12----12-14~---------7--9--10-|
A|-----------------------------------------------------14-------------------------|
E|--------------------------------------------------------------------------------|


e|--------------------|
B|------7-----7--8----|
G|7--9-----9----------|
D|--------------------|
A|--------------------|
E|--------------------|


e|-----10-7--10b---------------------7--------------------------------------------|
B|--10----------------------------------10-8-----8--10~---------------------------|
G|--------------------------------------------9-----------------------------------|
D|--------------------------------------------------------------------------------|
A|--------------------------------------------------------------------------------|
E|--------------------------------------------------------------------------------|


[Chorus]
e|----------------------------|-------|
B|----------------------------|-------|
G|--4--4g-4g----4--4g-4g------|-------|
D|-----------5-----------5----|-------|
A|----------------------------|--7----|
E|----------------------------|-------|


e|----------------------------|-------|----------------------------|
B|----------------------------|-------|----------------------------|
G|--4--4g-4g----4--4g-4g------|-------|--7b-7g-5-----7b-7g-5-------|
D|-----------5-----------5----|-------|----------------------------|
A|----------------------------|--7----|----------------------------|
E|----------------------------|-------|----------------------------|


e|----------------------------|----------------------------|
B|----------------------------|----------------------------|
G|--5--5--4-------------------|--7b-7g-5-----7b-7g-5--5----|
D|----------------------------|----------------------------|
A|----------------------------|----------------------------|
E|----------------------------|----------------------------|


e|-------------------------|
B|-------------------------|
G|--4--4~------------------|
D|-------------------------|
A|-------------------------|
E|-------------------------|

Legend
***********************
x - dead note
h - hammer on/pull off
b - bend
s - slide
~ - vibrato
g - ghost note
***********************
Suggest correction
Give kudos to tab author, rate the tab!
1 2 3 4 5
comments
print report bad tab
guest
You may want to rate the tab now too:
select rating
Wanna post a correction for this tab? Suggest correction