Oops, an error
Loading. Please wait.
We have an official Heathens tab made by UG professional guitarists. Check out the tab »
×

Heathens tab

version 3
version 3

Whole song

  • As played by Kfir Ochaion (https://www.youtube.com/watch?v=C9T96p51WZI).
  • This is the full song arranged for guitar. Piano p... Show more
  • Full fingerstyle arrangement by Andrew Foy.

Interactive

Video

2,245 views 24 this week
no commentswrite comment
1 2 3 4 5
x 12
add to favorites
×
Save as Personal and add changes to this tab that will be seen only by you. Learn more ›
×
You can save this tab as Personal to edit and correct it or add notes. All changes will be seen only by you. Learn more »
launch autoscroll
font size
0
reset
how to read this tab
guitar tuner
edit
Autoscroll
slow
fast
+/-
esc
set tempo
stop
About this tab version
This is the full song arranged for guitar. Piano parts, bass part, and general chords are included as well as tabs for certain parts and lyrics under the chords. Was this info helpful? Yes No
                                                                Twenty One Pilots - Heathens

[Intro Chorus]
e|-0---0---8---8---|-7---7---7---7---|-0---0---8---8---|-7---7---10---8-7-|
B|-1---1---10--10--|-8---8---8---8---|-1---1---10--10--|-8---8------------|
G|---0---0---9---9-|---9---9---9---9-|---0---0---9---9-|---9---9----------|
D|-----------------|-----------------|-----------------|------------------|
A|-----------------|-----------------|-----------------|------------------|
E|-----------------|-----------------|-----------------|------------------|

e|-0---0---8---8---|-7---7---7---7---|-0---0---8---8---|-7---7------------|
B|-1---1---10--10--|-8---8---8---8---|-1---1---10--10--|-8---8------------|
G|---0---0---9---9-|---9---9---9---9-|---0---0---9---9-|---9---9----------|
D|-----------------|-----------------|-----------------|------------------|
A|-----------------|-----------------|-----------------|------------------|
E|-----------------|-----------------|-----------------|------------------|

[Chorus 1]  
e|-----------------|-----------------|-----------------|------------------|
B|-----------------|-----------------|-----------------|------------------|
G|-----------------|-----------------|-----------------|------------------|
D|-----------------|-----------------|-----------------|------------------| x2
A|-3---------------|-0-----------3---|-----------------|------------------|
E|-----------------|---------------3-|-0---------------|------------------|

e|-0---0---8---8---|-7---7---7---7---|-0---0---8---8---|-7---7---7---7----|
B|-1---1---10--10--|-8---8---8---8---|-1---1---10--10--|-8---8---8---8----|
G|---0---0---9---9-|---9---9---9---9-|---0---0---9---9-|---9---9---9---9--|
D|-----------------|-----------------|-----------------|------------------|
A|-----------------|-----------------|-----------------|------------------|
E|-----------------|-----------------|-----------------|------------------|

[Verse 1]
C
Welcome to the room of people
                                   Em
Who have rooms of people that they loved one day, docked away
Am  
Just because we check the guns at the door
                 Em
Doesn't mean our brains will change from hand grenades
C                       Am                         Em
  You'll never know the psychopath sitting next to you
                                                 C
  You'll never know the murderer sitting next to you
                      Am                       B7
You'll think, how'd I get here sitting next to you?
But after all I've said, please don't forget
e|---------------15-14--------|-------------15-14------------|
B|-12-12-12--12---------------|-12-----12--------------------|
G|----------------------------|------------------------------|
D|----------------------------|------------------------------|
A|----------------------------|------------------------------|
E|----------------------------|------------------------------|

[Chorus 2]
e|-0---0---8---8---|-7---7---7---7---|-0---0---8---8---|-7---7---10---8-7-|
B|-1---1---10--10--|-8---8---8---8---|-1---1---10--10--|-8---8------------|
G|---0---0---9---9-|---9---9---9---9-|---0---0---9---9-|---9---9----------|
D|-----------------|-----------------|-----------------|------------------| x2
A|-----------------|-----------------|-----------------|------------------|
E|-----------------|-----------------|-----------------|------------------|

[Verse 2]
C 
  We don't deal with outsiders very well
Em
  They say newcomers have a certain smell
Am
  You have trust issues, not to mention
Em
  They say they can smell your intentions
C                       Am                        Em 
  You'll never know the freakshow sitting next to you
                                                C
  You'll have some weird people sitting next to you
                        Am                        B7
  You'll think "How'd I get here, sitting next to you"
  But after all I've said, please don't forget
e|-----------------x-x---|
B|-----------------x-x---|
G|-----------------x-x---|
D|-----------------x-x---|
A|-----------------x-x---|
E|-2-2-2-2-2-2-2-2-x-x---|

[Bridge]  
e|--------------8---7-----------x-x-|-------------8---7----------------|
B|---------10-------------------x-x-|--------10---------------10---7---|
G|-9----------------------------x-x-|9---------------------------------|
D|------------------------------x-x-|----------------------------------|
A|------------------------------x-x-|----------------------------------|
E|------------------------------x-x-|----------------------------------|

[Outro Chorus]
e|-0---0---8---8---|-7---7---7---7---|-0---0---8---8---|-7---7-----------|
B|-1---1---10--10--|-8---8---8---8---|-1---1---10--10--|-8---8-----------|
G|---0---0---9---9-|---9---9---9---9-|---0---0---9---9-|---9---9---------|
D|-----------------|-----------------|-----------------|-----------------|
A|-----------------|-----------------|-----------------|-----------------|
E|-----------------|-----------------|-----------------|-----------------|

e|-0---0---8---8---|-7---7---7---7---|-0---0---8---8---|-7---7---7---7---|
B|-1---1---10--10--|-8---8---8---8---|-1---1---10--10--|-8---8---8---8---|
G|---0---0---9---9-|---9---9---9---9-|---0---0---9---9-|---9---9---9---9-|
D|-----------------|-----------------|-----------------|-----------------|
A|-----------------|-----------------|-----------------|-----------------|
E|-----------------|-----------------|-----------------|-----------------|


e|-0---0---8---8---|-7---7---7---7---|-0---0---8---8---|-7---7---10------|
B|-1---1---10--10--|-8---8---8---8---|-1---1---10--10--|-8---8-----------|
G|---0---0---9---9-|---9---9---9---9-|---0---0---9---9-|---9---9---------|
D|-----------------|-----------------|-----------------|-----------------| x2
A|-----------------|-----------------|-----------------|-----------------|
E|-----------------|-----------------|-----------------|-----------------|

e|-----------------|-----------------|-----------------|-----------------|
B|-----------------|-----------------|-----------------|-----------------|
G|-----------------|-----------------|-----------------|-----------------|
D|-----------------|-----------------|-----------------|-----------------| x6
A|-3---------------|-0-----------3---|-----------------|-----------------|
E|-----------------|---------------3-|-0---------------|-----------------|

e|-0---0---8---8---|-7---7---7---7---|-0---0---8---8---|-7---7-----------|
B|-1---1---10--10--|-8---8---8---8---|-1---1---10--10--|-8---8-----------|
G|---0---0---9---9-|---9---9---9---9-|---0---0---9---9-|---9-------------|
D|-----------------|-----------------|-----------------|-----------------|
A|-----------------|-----------------|-----------------|-----------------|
E|-----------------|-----------------|-----------------|-----------------|

Note:    These two are interchangeable.
       
       e|--0-----|          e|---------|  
       B|----1---|          B|---------|
       G|----0---|          G|--9------|
       D|--------|          D|----10---|
       A|--------|          A|----10---|
       E|--------|          E|---------|

              Just depends on if you like to move vertically or horizontally.

x = percussive strum

            
            
Suggest correction
Creating personal tab
Creating personal tab
You can edit any tab online and save it as your Personal.

You can edit, replace or remove any tab part or add personal notes – all changes will be seen only by you.

Personal tabs can be accessed anytime from any device, even offline.
Learn more »
comments
print report bad tab
guest
You may want to rate the tab now too:
select rating
Wanna post a correction for this tab? Suggest correction