Oops, an error
Loading. Please wait.
We have an official Heathens tab made by UG professional guitarists. Check out the tab »
×

Heathens Acoustic tab

version 4
version 4

Whole song

  • As played by Kfir Ochaion (https://www.youtube.com/watch?v=C9T96p51WZI).
  • This is the full song arranged for guitar. Piano p... Show more
  • Full fingerstyle arrangement by Andrew Foy.

Interactive

Video

3,028 views 105 this week
1 commentread comment
1 2 3 4 5
x 3
add to favorites
×
Save as Personal and add changes to this tab that will be seen only by you. Learn more ›
×
You can save this tab as Personal to edit and correct it or add notes. All changes will be seen only by you. Learn more »
launch autoscroll
font size
0
reset
how to read this tab
guitar tuner
edit
Autoscroll
slow
fast
+/-
esc
set tempo
stop
About this tab version
Full fingerstyle arrangement by Andrew Foy. Was this info helpful? Yes No
Andrew Foy's Arrangement

https://www.youtube.com/watch?v=njyo_Vg5awk

[Chorus]

e|---------------------------------------------------------------------------|
B|---------------------------------------------------------------------------|
G|---4-4h5-4------4-4h5-4------------------------4-4h5-4------4-4h5-4--------|
D|--5--------5---5--------5-------6---6---6-----5--------5---5--------5------|
A|-3------------0------------5/7--7-7-7-7-7-7--3------------0-----------5/7--|
E|---------------------------0------------------------------------------0----|

e|------------0-------0--------------------------0-------0-------------------|
B|-0------------2/3-1---------3/5-5-0-0---0---0----2/3-1---------3/5-5-0-0---|
G|-4---7---5-------------/7-5---------0---1---1-------------/7-5---------0---|
D|---6---6-6----------------------------2---2--------------------------------|
A|--------------2/3-------0------------------------2/3------0----------------|
E|--------------------------------0----------------------------------0-------|

                o           o                   o         o           o
e|---------------------------------------------------------------------------|
B|--0-----------0-1-0-----0-1-0---------0-----------------0-1-0-----0-1-0----|
G|--1-----------0---0-0---0---0-0-------1----1-----1------0---0-0---0---0-0--|
D|--2------------------------------2----2----2-----2-------------------------|
A|--------x--x--3---x-----0---x---------x--2-------2--x---3---x-----0---x----|
E|-----0--x--x------x---------x----0-0--x-------------x-------x---------x----|

                o      o              o        o           o
e|-------------------0---------0----------------------------------0----------|
B|------0-----3---1----2/3-1---------------3/5-5-0-0----0-----------2/3-1----|
G|------1-----1--(0)--------------/7--5------------0----1--------------------|
D|-2----2---------------------------------------------2----------------------|
A|------x--2------x----2/3---x----0------x---------x-----------x----2/3---x--|
E|-0-0--x---------x----------x-----------x-----0---x-----------x----------x--|

          o        o           o
e|-0-------------------------------------------------------------------------|
B|-------------3/5-5-0-0----0------------------------------------------------|
G|----/7--5------------0----1------------------------------------------------|
D|------------------------2--------------------------------------------------|
A|----0------x---------x----------x------------------------------------------|
E|-----------x-----0---x----------x------------------------------------------|

[Verse]

   o                        o                           o
e|---------------------------------------------------------------------------|
B|---------------------------------------------------------------------------|
G|---------------------------------------------------------------------------|
D|-9-9-9-9------------6/7-7-7-7-7--6/7-------------6/7-----------------------|
A|----------12-12-12--0-------x---------10-7--x---------10-7--x--7-----------|
E|-8--------x-----------------x----0----------x--0------------x--------------|

   o                        o                           o
e|---------------------------------------------------------------------------|
B|---------------------------------------------------------------------------|
G|---------------------------------------------------------------------------|
D|-9-9-9-9------------6/7-7-7-7-7--6/7-------------6/7-----------------------|
A|----------12-12-12--0-------x---------10-7--x---------10-7--x--7-----------|
E|-8--------x-----------------x----0----------x--0------------x--------------|

   o                     o            o                      o            o
e|---------------------------------------------------------------------------|
B|---------------------------------------------------------------------------|
G|---------------------------------------------------------------------------|
D|----9------9---9\---/9-7-7-7-7-----------/9-----9--9---/9--7-7-7-7---------|
A|----10-----10-------0----x------10-10---/10----10-----/10-----------10-10--|
E|-/8-----8--x---8---------x----------0-------0--x---0--------------------8--|

                    o
e|-------------------------------------(0)-----------------------------------|
B|-------------------------------------(0)--<12>---------<7>----<12>---------|
G|---------------------------------------------------<5>-----------------<5>-|
D|-9-----9---9--/14-7-7-7-7----------------------<7>------------------<7>----|
A|-10----10---------0-x------10--9-(9)--x------------------------------------|
E|----0--x---0--------x----------7------x--------------------7---------------|

e|---------------------------------------------------------------------------|
B|--<7>----------------------------------------------------------------------|
G|---------------------------------------------------------------------------|
D|---------------------------------------------------------------------------|
A|------x-x------------------------------------------------------------------|
E|------x-x------------------------------------------------------------------|


[Chorus]

     o           o                   o         o           o
e|---------------------------------------------------------------------------|
B|---0-1-0-----0-1-0---------0-----------------0-1-0-----0-1-0---------0-----|
G|---0---0-0---0---0-0-------1----1-----1------0---0-0---0---0-0-------1-----|
D|----------------------2----2----2-----2-------------------------2----2-----|
A|---3---x-----0---x---------x--2-------2--x---3---x-----0---x---------x-----|
E|-------x---------x----0-0--x-------------x-------x---------x----0-0--x-----|

        o      o              o        o           o        o
e|-----------0---------0----------------------------------0------------------|
B|----3---1----2/3-1---------------3/5-5-0-0----0-----------2/3--1-----------|
G|----1--(0)--------------/7--5------------0----1----------------------------|
D|--------------------------------------------2------------------------------|
A|-2------x----2/3---x----0------x---------x-----------x----2/3----x---------|
E|--------x----------x-----------x-----0---x-----------x-----------x---------|

          o        o           o
e|-0-------------------------------------------------------------------------|
B|-------------3/5-5-0-0----0------------------------------------------------|
G|----/7--5------------0----1------------------------------------------------|
D|------------------------2--------------------------------------------------|
A|----0------x---------x----------x------------------------------------------|
E|-----------x-----0---x----------x------------------------------------------|


[Verse]

                      o          o              o            o
e|---------------------------------------------------------------------------|
B|---------------------------------------------------------------------------|
G|---------------------------------------------------------------------------|
D|------------------5-5---5---5----7----5--7--5-5---5----5------9------------|
A|-----12---10--12--0---9-x-9------7----7---------9-x--9-------10---12-10----|
E|-/8-----8------8--------x------0---0--x--0--------x-------/8----8--x--8----|

      o                                o
e|---------------------------------------------------------------------------|
B|---------------------------------------------------------------------------|
G|---------------------------------------------------------------------------|
D|-/7-7-5--5h7p5-------/9----7--9--5/7-7-5-5h7p5-----------------------------|
A|-0-------x------7----/7----x-------------x-----7---------------------------|
E|---------x---------0-----0-x--0----------x---------------------------------|

   o                     o            o                      o            o
e|---------------------------------------------------------------------------|
B|---------------------------------------------------------------------------|
G|---------------------------------------------------------------------------|
D|----9------9---9\---/9-7-7-7-7-----------/9-----9--9---/9--7-7-7-7---------|
A|----10-----10-------0----x------10-10---/10----10-----/10-----------10-10--|
E|-/8-----8--x---8---------x----------0-------0--x---0--------------------8--|

                    o
e|-------------------------------------(0)-----------------------------------|
B|-------------------------------------(0)--<12>---------<7>----<12>---------|
G|---------------------------------------------------<5>-----------------<5>-|
D|-9-----9---9--/14-7-7-7-7----------------------<7>------------------<7>----|
A|-10----10---------0-x------10--9-(9)--x------------------------------------|
E|----0--x---0--------x----------7------x--------------------7---------------|

e|---------------------------------------------------------------------------|
B|--<7>----------------------------------------------------------------------|
G|---------------------------------------------------------------------------|
D|---------------------------------------------------------------------------|
A|------x-x------------------------------------------------------------------|
E|------x-x------------------------------------------------------------------|

[Breakdown]

e|-8--8--8------5---8-------7---7---7---7--8--8--8------5---8-----7---7---7--|
B|-8--8--8------5---5--(5)--8---8---8---8--8--8--8------5---5-(5)-8---8---8--|
G|-9--9--9------5---5--(5)--9---9---9---9--9--9--9------5---5-(5)-9---9---9--|
D|-10-10-10-----0---0-------9---9---9---9--10-10-10-----0---0-----9---9---9--|
A|-10-10-10--x--0-0-x-------7---7---7---7--10-10-10--x--0-0-x-----7---7---7--|
E|-8--8--8---x------x---------0-x-0-x-0----8--8--8---x------x-------0-x-0-x-0|

e|-7\------------------------------------------------------------------------|
B|-8\------------------------------------------------------------------------|
G|-9\------------------------------------------------------------------------|
D|-9\------------------------------------------------------------------------|
A|-7\------------------------------------------------------------------------|
E|---------------------------------------------------------------------------|

[Bridge]

e|---------------------------------------------------------------------------|
B|-0-0h1-0----0-0h1-0------------------0-0h1-0----0-0h1-0---------3---1------|
G|-0-------0--0-------0---1---1---1----0-------0--0-------0---1---1---0------|
D|----------------------2-2---2---2-------------------------2-2-----0--------|
A|-3----------0-------------2---2---2--3----------0-------------2------------|
E|----------------------0-----------------------------------0----------------|

                o           o                   o         o           o
e|---------------------------------------------------------------------------|
B|--0-----------0-1-0-----0-1-0---------0-----------------0-1-0-----0-1-0----|
G|--1-----------0---0-0---0---0-0-------1----1-----1------0---0-0---0---0-0--|
D|--2------------------------------2----2----2-----2-------------------------|
A|--------x--x--3---x-----0---x---------x--2-------2--x---3---x-----0---x----|
E|-----0--x--x------x---------x----0-0--x-------------x-------x---------x----|

                o      o              o        o           o
e|-------------------0---------0---------------------------------------------|
B|------0-----3---1----2/3-1---------------3/5-5-0-0----0--------------------|
G|------1-----1--(0)--------------/7--5------------0----1--------------------|
D|-2----2---------------------------------------------2----------------------|
A|------x--2------x----2/3---x----0------x---------x-----------x-------------|
E|-0-0--x---------x----------x-----------x-----0---x-----------x-------------|

          o          o                                       o          o
e|------0---0-0--0-0---0-0--0-----0-----0-----(0)----------0---0-0--0-0---0-0|
B|-0h1--1---1-1--1-1---1-1--0-----0-----0-----(0)-----0h1--1---1-1--1-1---1-1|
G|-0----0---0-0--2-2---2-2--0-----0-----0-----(0)-----0----0---0-0--2-2---2-2|
D|-2-------------2----------2-2-2-2-2-2-2-2-2-(2)-----2-------------2--------|
A|-3--------x----0-----x----2-----2-----2-----(2)--x--3--------x----0-----x--|
E|----------x----------x----x-----x-----x----------x-----------x----------x--|
          
                   s           o          o
e|-0-----0-----0-------------0---0-0--0-0---0-0--0-----0-----0--0-0-0------0-|
B|-0-----0-----0--<13>---0h1-1---1-1--1-1---1-1--0-----0-----0--0-0-0--0h1-1-|
G|-0-----0-----0--<12>---0---0---0-0--2-2---2-2--0-----0-----0--0-0-0--0---0-|
D|-2-2-2-2-2-2-2--<14>---2------------2----------2-2-2-2-2-2-2--2-2-2--2-----|
A|-2-----2-----2--<15>---3-------x----0-----x----2-----2-----2--2-2-2--3-----|
E|-x-----x-----x-----------------x----------x----x-----x-----x---------------|

   o           o               s      s      s
e|----0-0--0-0---0-0--0-------<12>---<12>---<12>-----------------------------|
B|----1-1--1-1---1-1--0-------<12>---<12>---<12>-----------------------------|
G|----0-0--2-2---2-2--0-------<12>---<12>---<12>-----------------------------|
D|---------2----------2-------<14>---<14>---<14>-----------------------------|
A|----x----------x----2-------<14>---<14>---<14>-----------------------------|
E|----x----------x-------0-0-------0------0----------------------------------|

[Outro]

                                  o                 o                o
e|---------------------------------------------------------------------------|
B|-0-1-0---0-0h1-0---------0--------0----0-1-0----0-1-0-------0----3----1----|
G|-0-----0-0-------0-------1----1---1----0---0-0--0---0-0-----1----1---(0)---|
D|--------------------2----2-2--2---2---------------------2---2--------------|
A|-3-------0---------------x--------2-x--3---x----0---x-------x-2-------x----|
E|--------------------0-0--x----------x------x--------x---0-0-x---------x----|

     o              o        o           o
e|--0---------0---------------------------------0---------0------------------|
B|---2/3-1---------------3/5-5-0-0----0-----------2/3-1----------------0-----|
G|--------------/7--5------------0----1-----------------0---/7-5-5-4\--1-----|
D|----------------------------------2----------------------------------2-----|
A|---2/3---x----0------x---------x-----------x----2/3-------0----------2-----|
E|---------x-----------x-----0---x-----------x-------------------------------|


************************************

| x   Dead note
| (n) Ghost note
| h   Hammer-on
| p   Pull-off
| /   Slide up
| \   Slide down
| ~   Vibrato
| s   Slap
| o   Wrist thump
|<->  Harmonic 

************************************
Suggest correction
Creating personal tab
Creating personal tab
You can edit any tab online and save it as your Personal.

You can edit, replace or remove any tab part or add personal notes – all changes will be seen only by you.

Personal tabs can be accessed anytime from any device, even offline.
Learn more »
Give kudos to tab author, rate the tab!
1 2 3 4 5
comments
print report bad tab
1 comment total.
+1 reply
DerpMaster 12 Apr 06, 2017 09:48 PM

Love the tabs!!!

guest
You may want to rate the tab now too:
select rating
Wanna post a correction for this tab? Suggest correction