Oops, an error
Loading. Please wait.

Heathens Bass Tab

version 5
version 5

Whole song

  • Added changes related to the comments.
  • This version is based off of directly what is hear... Show more
  • Five string standard bass tab. No need to drop tune.

Interactive

334 views 6 this week
no commentswrite comment
1 2 3 4 5
1 last vote to show rating
add to favorites
launch autoscroll
font size
0
reset
guitar tuner
Autoscroll
slow
fast
+/-
esc
set tempo
stop
Help us to improve Ultimate-Guitar.com Take our survey!
×
Author
Difficulty
novice
About this tab version
This version is based off of directly what is heard from the song as well as some minor adjustments with octaves and such. Was this info helpful? Yes No
[Intro]

G|----------------------|
D|----------------------|
A|-3---0---2------------| x 2
E|-------------3---0----|

G|----------------------|
D|---------2------------|
A|-3---0-------2--------| x 2
E|-----------------0----|


[Verse]

No Bass


[Chorus]

G|----------------------|
D|----------------------|
A|-3---0---2------------| x 2
E|-------------3---0----|

G|----------------------|
D|---------2------------|
A|-3---0-------2--------|
E|-----------------0----|


[Verse]

No Bass


[Pre Chorus]

G|--------------------------|
D|--------------------------|
A|-2--2---2--2--2--2--2-----|
E|--------------------------|


[Bridge]

G|----------------------|
D|-----------------2----|
A|-3---0---2------------| 
E|-------------3--------|


G|-------2---------------|
D|----------2------------|
A|-3--0--------2-------5-|
E|------------------0----|


[Chorus]

G|----------------------|
D|----------------------|
A|----------------------| x 2
E|----------------------|

G|----------------------|
D|---------2------------|
A|-3---0-------2--------| x 2
E|-----------------0----|


[Breakdown]

G|----------------------|
D|----------------------|
A|-3---0---2------------| x 2
E|-------------3---0----|


G|-------2---------------|
D|----------2------------|
A|-3--0--------2------5--| x 2
E|------------------0----|


[Outro]

G|----------------------|
D|--------2-------------|
A|-3--------------------| 
E|----------------------|


G|----------------------|
D|----------------------|
A|-3---0---2------------| 
E|-------------3---0----|


G|----------------------|
D|---------2------------|
A|-3---0-------2--------| 
E|-----------------0----|


G|----------------------|
D|----------------------|
A|-3---0----------------|
E|----------------------|



Thanks Guys! I hope you enjoy it! If you're having trouble hearing the things i've wrote check out this video
I posted as a cover with tabs to help you out!! I hope you enjoyed! More to come!

https://www.youtube.com/watch?v=ZutoGFCCODA
Suggest correction
Give kudos to tab author, rate the tab!
1 2 3 4 5
comments
print report bad tab
guest
You may want to rate the tab now too:
select rating
Wanna post a correction for this tab? Suggest correction