Oops, an error
Loading. Please wait.
We have Chord Pro version of Heathens.
It's the closest thing you can get to the original song and it has interactive parts. Check out the tab »
×

Heathens Bass

version 6
version 6

Whole song

  • Added changes related to the comments.
  • This version is based off of directly what is hear... Show more
  • Five string standard bass tab. No need to drop tune.

Interactive

799 views 6 this week
no commentswrite comment
1 2 3 4 5
x 3
add to favorites
launch autoscroll
font size
0
reset
guitar tuner
Autoscroll
slow
fast
+/-
esc
set tempo
stop
Author
Difficulty
novice
About this tab version
Five string standard bass tab. No need to drop tune. Was this info helpful? Yes No
Times according to https://www.youtube.com/watch?v=4Am6iIqPXHY

[0:27]
G|----------------------------------|
D|----------------------------------|
A|---------0---2--------------------| (x2)
E|---------------3-0----------------|
B|-1--------------------------------|
   1 + 2 + 3 + 4 + 1 + 2 + 3 + 4 + 
G|----------------------------------|
D|-----------------2----------------|
A|---------0---------2--------------| (x2)
E|---------------------0------------|
B|-1--------------------------------|
   1 + 2 + 3 + 4 + 1 + 2 + 3 + 4 + 

[0:59]
G|----------------|
D|-0-2------------|
A|----------------| (x3)
E|----------------|
B|----------------|
   + 1 + 2 + 3 + 4 
G|----------------------------------|
D|-0--------------------------------|
A|---2------------------------------|
E|----------------------------------|
B|----------------------------------|
   + 1 + 2 + 3 + 4 + 1 + 2 + 3 + 4 + 
G|----------------------------------|
D|----------------------------------|
A|---------0---2--------------------| (x2)
E|---------------3-0----------------|
B|-1--------------------------------|
   1 + 2 + 3 + 4 + 1 + 2 + 3 + 4 + 
G|----------------------------------|
D|-----------------2----------------|
A|---------0---------2--------------| (x2)
E|---------------------0------------|
B|-1--------------------------------|
   1 + 2 + 3 + 4 + 1 + 2 + 3 + 4 + 

[1:44]
G|----------------|
D|-0-2------------|
A|----------------| (x3)
E|----------------|
B|----------------|
   + 1 + 2 + 3 + 4 
G|----------------------------------|
D|-0--------------------------------|
A|---2---2---2---2---2---2---2------|
E|----------------------------------|
B|----------------------------------|
   + 1 + 2 + 3 + 4 + 1 + 2 + 3 + 4 + 
G|-----------------------------------------------------------------|
D|-------------------------------------------------2---------------|
A|---------0---2---------------------------0---------2-------------|
E|---------------3-0-----------------------------------0-----------|
B|-1-------------------------------1-------------------------------|
   1 + 2 + 3 + 4 + 1 + 2 + 3 + 4 + 1 + 2 + 3 + 4 + 1 + 2 + 3 + 4 +

[2:19]
G|----------------------------------|
D|-----------------2----------------|
A|---------0---------2--------------| (x2)
E|---------------------0------------|
B|-1--------------------------------|
   1 + 2 + 3 + 4 + 1 + 2 + 3 + 4 + 
G|----------------------------------|
D|----------------------------------|
A|---------0---2--------------------| (x2)
E|---------------3-0----------------|
B|-1--------------------------------|
   1 + 2 + 3 + 4 + 1 + 2 + 3 + 4 + 
G|----------------------------------|
D|-----------------2----------------|
A|---------0---------2--------------| (x2)
E|---------------------0------------|
B|-1--------------------------------|
   1 + 2 + 3 + 4 + 1 + 2 + 3 + 4 + 
G|------------------------------------------------------------------|
D|------------------------------------------------------------------|
A|-----------------------------------------0---2--------------------|
E|-----------------0-----------------------------3-0----------------|
B|-1-------------------------------1--------------------------------|
   1 + 2 + 3 + 4 + 1 + 2 + 3 + 4 + 1 + 2 + 3 + 4 + 1 + 2 + 3 + 4 + 
G|--------------------------------------------------|
D|-----------------2--------------------------------|
A|---------0---------2---------------------0--------|
E|---------------------0----------------------------|
B|-1-------------------------------1----------------|
   1 + 2 + 3 + 4 + 1 + 2 + 3 + 4 + 1 + 2 + 3 + 4 +  
Suggest correction
Give kudos to tab author, rate the tab!
1 2 3 4 5
comments
print report bad tab
guest
You may want to rate the tab now too:
select rating
Wanna post a correction for this tab? Suggest correction