Oops, an error
Loading. Please wait.

Heathens Bass Tab

version 7
version 7

Whole song

  • Added changes related to the comments.
  • This version is based off of directly what is hear... Show more
  • Five string standard bass tab. No need to drop tune.

Interactive

58 views 33 this week
no commentswrite comment
1 2 3 4 5
3 more votes to show rating
add to favorites
launch autoscroll
font size
0
reset
guitar tuner
Autoscroll
slow
fast
+/-
esc
set tempo
stop
Help us to improve Ultimate-Guitar.com Take our survey!
×
Author
Difficulty
Unofficial Alternate Version Reference: https://www.youtube.com/watch?v=rPtqsEXEQjo

Artist: Twenty One Pilots
Song: Heathens
Key: E minor/G major

[Verse/Chorus]
G|----------------------|-------------------|
D|-----------0/2--------|---------------0-1-|
A|-------0/2------------|-0---0-1-2--2------|
E|-0--------------0-3/4-|---0---------------|

[Pre-chorus]
G|-----------------|---------------|
D|-----------------|---------------|
A|-2-------2-----2-|-------2-0-----|
E|-----2-------2---|-----------3-2-|

[Song Order for Reference]
[Leading Chorus/Intro]
(Don't play)

[Chorus 2]
G|----------------------|-------------------|
D|-----------0/2--------|---------------0-1-|
A|-------0/2------------|-0---0-1-2--2------|
E|-0--------------0-3/4-|---0---------------|

[Verse 1] 
(Begin playing at "You'll never know the psychopath sitting next to you,")
G|----------------------|-------------------|
D|-----------0/2--------|---------------0-1-|
A|-------0/2------------|-0---0-1-2--2------|
E|-0--------------0-3/4-|---0---------------|

[Pre-Chorus 1]
G|-----------------|---------------|
D|-----------------|---------------|
A|-2-------2-----2-|-------2-0-----|
E|-----2-------2---|-----------3-2-|

[Chorus 3]
G|----------------------|-------------------|
D|-----------0/2--------|---------------0-1-|
A|-------0/2------------|-0---0-1-2--2------|
E|-0--------------0-3/4-|---0---------------|

[Verse 2] 
(Begin playing at the second measure)
G|----------------------|-------------------|
D|-----------0/2--------|---------------0-1-|
A|-------0/2------------|-0---0-1-2--2------|
E|-0--------------0-3/4-|---0---------------|

[Pre-Chorus 2]
G|-----------------|---------------|
D|-----------------|---------------|
A|-2-------2-----2-|-------2-0-----|
E|-----2-------2---|-----------3-2-|

[Instrumental]
G|----------------------|-------------------|
D|-----------0/2--------|---------------0-1-|
A|-------0/2------------|-0---0-1-2--2------|
E|-0--------------0-3/4-|---0---------------|

[Chorus 4] 
(Begin playing at "Please don't make any sudden moves")
G|----------------------|-------------------|
D|-----------0/2--------|---------------0-1-|
A|-------0/2------------|-0---0-1-2--2------|
E|-0--------------0-3/4-|---0---------------|

[Coda]
(Begin playing at the second measure)
G|----------------------|-------------------|
D|-----------0/2--------|---------------0-1-|
A|-------0/2------------|-0---0-1-2--2------|
E|-0--------------0-3/4-|---0---------------|


************************************

| /  Slide up

************************************
Suggest correction
Give kudos to tab author, rate the tab!
1 2 3 4 5
comments
print report bad tab
guest
You may want to rate the tab now too:
select rating
Wanna post a correction for this tab? Suggest correction