Oops, an error
Loading. Please wait.

Heavydirtysoul tab

version 1
version 1

Whole song

Interactive

Video

  • Heavydirtysoul full song on guitar.
8,786 views 54 this week
1 commentread comment
1 2 3 4 5
x 6
add to favorites
×
Save as Personal and add changes to this tab that will be seen only by you. Learn more ›
×
You can save this tab as Personal to edit and correct it or add notes. All changes will be seen only by you. Learn more »
launch autoscroll
font size
0
reset
how to read this tab
guitar tuner
edit
Autoscroll
slow
fast
+/-
esc
set tempo
stop
Tuning: Drop D

[Intro]
(0:00)
(For the intro just let the guitar feedback.)

[Verse]
(0:17)
(There's an infestation in my mind's imagination)
e|---------------------------------------------------------------------------|
B|---------------------------------------------------------------------------|
G|---------------------------------------------------------------------------|
D|---------------------------------------------------------------------------|
A|---------------------------------------------------------------------------|
D|-0-0-0-0-1-1-1-1-0-0-0-0-0-0-0-0-------------------------------------------| x8

[Pre-Chorus]
(0:32)
(Gangsters don't cry)
e|---------------------------------------------------------------------------|
B|---------------------------------------------------------------------------|
G|---------------------------------------------------------------------------|
D|-0~------------------------------------------------------------------------|
A|-0~------------------------------------------------------------------------|
D|-0~--( Let this ring until the chorus )------------------------------------| 

[Chorus]
(0:39)
(Can you save, can you save my)
e|---------------------------------------------------------------------------|
B|---------------------------------------------------------------------------|
G|----------------5~---------------------------------------------------------|
D|-8~---5~---0~---5~---------------------------------------------------------|
A|-8~---5~---0~---3~--( Let each chord ring for 4 beats )--------------------|
D|-8~---5~---0~--------------------------------------------------------------| x2

(0:54)
(For me, for me)
e|---------------------------------------------------------------------------|
B|---------------------------------------------------------------------------| 
G|----------------------------------------------------5-5-5-5-5-5-5-5--------|
D|-8-8-8-8-8-8-8-8--5-5-5-5-5-5-5-5--0-0-0-0-0-0-0-0--5-5-5-5-5-5-5-5--------|
A|-8-8-8-8-8-8-8-8--5-5-5-5-5-5-5-5--0-0-0-0-0-0-0-0--3-3-3-3-3-3-3-3--------|
D|-8-8-8-8-8-8-8-8--5-5-5-5-5-5-5-5--0-0-0-0-0-0-0-0-------------------------| x2

[Pre-Verse]
(1:09)
e|---------------------------------------------------------------------------|  
B|---------------------------------------------------------------------------|
G|---------------------------------------------------------------------------|
D|-0~------------------------------------------------------------------------|
A|-0~------------------------------------------------------------------------|
D|-0~--( Let this ring until the verse )-------------------------------------| 

[Verse]
(1:12)
(Nah, I didn't understand a thing you said)
e|---------------------------------------------------------------------------|
B|---------------------------------------------------------------------------|
G|---------------------------------------------------------------------------|
D|---------------------------------------------------------------------------|
A|---------------------------------------------------------------------------|
D|-0-0-0-0-1-1-1-1-0-0-0-0-0-0-0-0-------------------------------------------| x8

[Pre-Chorus]
(1:27)
(Gangsters don't cry)
e|---------------------------------------------------------------------------|
B|---------------------------------------------------------------------------|
G|---------------------------------------------------------------------------|
D|-0~------------------------------------------------------------------------|
A|-0~------------------------------------------------------------------------|
D|-0~--( Let this ring out until the chorus )--------------------------------|

[Chorus]
(1:35)
(Can you save, can you save my)
e|---------------------------------------------------------------------------|
B|---------------------------------------------------------------------------|
G|----------------5~---------------------------------------------------------|
D|-8~---5~---0~---5~---------------------------------------------------------|
A|-8~---5~---0~---3~--( Let each chord ring for 4 beats )--------------------|
D|-8~---5~---0~--------------------------------------------------------------| x2

(1:49)
(For me, for me)
e|---------------------------------------------------------------------------|
B|---------------------------------------------------------------------------| 
G|----------------------------------------------------5-5-5-5-5-5-5-5--------|
D|-8-8-8-8-8-8-8-8--5-5-5-5-5-5-5-5--0-0-0-0-0-0-0-0--5-5-5-5-5-5-5-5--------|
A|-8-8-8-8-8-8-8-8--5-5-5-5-5-5-5-5--0-0-0-0-0-0-0-0--3-3-3-3-3-3-3-3--------|
D|-8-8-8-8-8-8-8-8--5-5-5-5-5-5-5-5--0-0-0-0-0-0-0-0-------------------------| x2

[Bridge]
(2:04)
e|---------------------------------------------------------------------------|
B|---------------------------------------------------------------------------|
G|------------------------------------5-5-5-5--------------------------------|
D|-8-8-8-8-8-8--5-5-5-5--0-0-0-0-0-0--5-5-5-5--------------------------------|
A|-8-8-8-8-8-8--5-5-5-5--0-0-0-0-0-0--3-3-3-3--------------------------------|
D|-8-8-8-8-8-8--5-5-5-5--0-0-0-0-0-0-----------------------------------------| x2

(2:21)
(Death inspires me like a dog, inspires a rabbit)
e|---------------------------------------------------------------------------|
B|---------------------------------------------------------------------------|
G|---------------------------------------------------------------------------|
D|-0~------------------------------------------------------------------------|
A|-0~------------------------------------------------------------------------|
D|-0~--( Let this ring out until the chorus )--------------------------------|

[Chorus]
(2:36)
(Can you save, can you save my)
e|---------------------------------------------------------------------------|
B|---------------------------------------------------------------------------|
G|----------------5----------------------------------------------------------|
D|-8~---5~---0~---5----------------------------------------------------------|
A|-8~---5~---0~---3----------------------------------------------------------|
D|-8~---5~---0~--------------------------------------------------------------| x2

(Let each chord ring out for 4 beats apart from the last chord)

(2:50)
(For me, for me)
e|---------------------------------------------------------------------------|
B|---------------------------------------------------------------------------| 
G|----------------------------------------------------5-5-5-5-5-5-5-5--------|
D|-8-8-8-8-8-8-8-8--5-5-5-5-5-5-5-5--0-0-0-0-0-0-0-0--5-5-5-5-5-5-5-5--------|
A|-8-8-8-8-8-8-8-8--5-5-5-5-5-5-5-5--0-0-0-0-0-0-0-0--3-3-3-3-3-3-3-3--------|
D|-8-8-8-8-8-8-8-8--5-5-5-5-5-5-5-5--0-0-0-0-0-0-0-0-------------------------| x2

[Bridge]
(3:05)
e|---------------------------------------------------------------------------|
B|---------------------------------------------------------------------------|
G|------------------------------------5-5-5-5--------------------------------|
D|-8-8-8-8-8-8--5-5-5-5--0-0-0-0-0-0--5-5-5-5--------------------------------|
A|-8-8-8-8-8-8--5-5-5-5--0-0-0-0-0-0--3-3-3-3--------------------------------|
D|-8-8-8-8-8-8--5-5-5-5--0-0-0-0-0-0-----------------------------------------|

e|---------------------------------------------------------------------------|
B|---------------------------------------------------------------------------|
G|--------------------------------------5-5-5-5------------------------------|
D|-8-8-8-8-8-8--10-10-7-7--0-0-0-0-0-0--5-5-5-5------------------------------|
A|-8-8-8-8-8-8--10-10-7-7--0-0-0-0-0-0--3-3-3-3------------------------------|
D|-8-8-8-8-8-8--10-10-7-7--0-0-0-0-0-0---------------------------------------|

(Repeat this again one more time)

[Outro] 
(3:38)
e|---------------------------------------------------------------------------|
B|---------------------------------------------------------------------------|
G|---------------------------------------------------------------------------|
D|-0~------------------------------------------------------------------------|
A|-0~------------------------------------------------------------------------|
D|-0~--( Let this ring out and feedback until the end )----------------------|


************************************

| ~   Let Ring

************************************

            
            
Suggest correction
Creating personal tab
Creating personal tab
You can edit any tab online and save it as your Personal.

You can edit, replace or remove any tab part or add personal notes – all changes will be seen only by you.

Personal tabs can be accessed anytime from any device, even offline.
Learn more »
comments
print report bad tab
1 comment total.
0 reply
NathanLovesTOP 23 Mar 23, 2017 03:37 AM

For the last bridge you should make it played x3

guest
You may want to rate the tab now too:
select rating
Wanna post a correction for this tab? Suggest correction