Oops, an error
Loading. Please wait.

Holding Onto You bass

version 1
version 1

Whole song

  • Bass line for whole song, it's for 5 string bass guitar.

Interactive

367 views 3 this week
2 commentsread comments
1 2 3 4 5
1 last vote to show rating
add to favorites
×
Save as Personal and add changes to this tab that will be seen only by you. Learn more ›
×
You can save this tab as Personal to edit and correct it or add notes. All changes will be seen only by you. Learn more »
launch autoscroll
font size
0
reset
guitar tuner
edit
Autoscroll
slow
fast
+/-
esc
set tempo
stop
Author
Difficulty
About this tab version
Bass line for whole song, it's for 5 string bass guitar. Was this info helpful? Yes No
Title: Holding On To You
Artist: Twenty one pilots
Tabber: Sabi.R
Tempo = 180
Time signature: 4/4
Electric Bass

************************************************************
[Pattern A]
G |----------------------------|----------------------------|
D |----------------------------|----------------------------|
A |----------------------------|----------------------------|
E |--4-----------4--4----------|----------------------------|
B |----------------------------|--7-----------7--7----------|


G |----------------------------|----------------------------|
D |----------------------------|----------------------------|
A |----------------------------|----------------------------|
E |----------------------------|----------------------------|
B |--5-----------5--5----------|--0-----------0--4--7-------|


G |----------------------------|----------------------------|
D |----------------------------|----------------------------|
A |----------------------------|----------------------------|
E |--4-----------4--4----------|----------------------------|
B |----------------------------|--7-----------7--7----------|


G |----------------------------|----------------------------|
D |----------------------------|----------------------------|
A |----------------------------|----------------------------|
E |----------------------------|--7-----------7--6--7-------|
B |--5-----------5--5----------|----------------------------|

************************************************************
[Pattern B]
G |----------------------------|----------------------------|
D |----------------------------|----------------------------|
A |----------------------------|----------------------------|
E |--4-----------4--4----------|----------------------------|
B |----------------------------|--7-------------------------|


G |----------------------------|----------------------------|
D |----------------------------|----------------------------|
A |----------------------------|----------------------------|
E |----------------------------|----------------------------|
B |--5-----------5--5----------|--0-------------------------|


G |----------------------------|----------------------------|
D |----------------------------|----------------------------|
A |----------------------------|----------------------------|
E |--4-----------4--4----------|----------------------------|
B |----------------------------|--7-------------------------|


G |----------------------------|----------------------------|
D |----------------------------|----------------------------|
A |----------------------------|----------------------------|
E |----------------------------|--7-------------------------|
B |--5-----------5--5----------|----------------------------|

************************************************************
[Pattern C]
G |-------|-------|-------|----------|
D |-------|-------|-------|----------|
A |-------|-------|-------|-----4----|
E |--0----|--4----|-------|--2-------|
B |-------|-------|--0----|----------|

************************************************************
[Pattern D]
G |----------------|----------------|----------------|----------------|
D |----------------|----------------|----------------|----------------|
A |----------------|----------------|--1--1--1--1----|--1--1--1--1----|
E |--4--4--4--4----|--4--4--4--4----|----------------|----------------|
B |----------------|----------------|----------------|----------------|


G |----------------|----------------|----------------|----------------|
D |----------------|----------------|----------------|----------------|
A |--2--2--2--2----|--2--2--2--2----|----------------|----------------|
E |----------------|----------------|--0--0--0--0----|--0--0--0--0----|
B |----------------|----------------|----------------|----------------|

************************************************************
Now just use the patterns as shown below on the lyrics
Please notice to the notaions between square brackets and kepp playing till the next notation.
************************************************************

[Verse 1]
I'm taking over my body
(Silence = play nothing)
G |----------------------------|----------------------------|
D |----------------------------|----------------------------|
A |----------------------------|----------------------------|
E |----------------------------|----------------------------|
B |----------------------------|----------------------------|


G |----------------------------|----------------------------|
D |----------------------------|----------------------------|
A |----------------------------|----------------------------|
E |----------------------------|----------------------------|
B |----------------------------|----------------------------|


G |----------------------------|----------------------------|
D |----------------------------|----------------------------|
A |----------------------------|----------------------------|
E |----------------------------|----------------------------|
B |----------------------------|----------------------------|


G |----------------------------|----------------------------|
D |----------------------------|----------------------------|
A |----------------------------|----------------------------|
E |----------------------------|----------------------------|
B |----------------------------|----------------------------|
Back in control, no more shotty
I bet a lot of me was lost
"T"'s uncrossed and "I"'s undotted
I fought it a lot and it seems a lot
Like flesh is all I got
Not any more, flesh out the door ?

[Verse 2]
I must'a forgot, you can't trust me
(Pattern A)
G |----------------------------|----------------------------|
D |----------------------------|----------------------------|
A |----------------------------|----------------------------|
E |--4-----------4--4----------|----------------------------|
B |----------------------------|--7-----------7--7----------|


G |----------------------------|----------------------------|
D |----------------------------|----------------------------|
A |----------------------------|----------------------------|
E |----------------------------|----------------------------|
B |--5-----------5--5----------|--0-----------0--4--7-------|


G |----------------------------|----------------------------|
D |----------------------------|----------------------------|
A |----------------------------|----------------------------|
E |--4-----------4--4----------|----------------------------|
B |----------------------------|--7-----------7--7----------|


G |----------------------------|----------------------------|
D |----------------------------|----------------------------|
A |----------------------------|----------------------------|
E |----------------------------|--7-----------7--6--7-------|
B |--5-----------5--5----------|----------------------------|
I'm moment-to-moment and close but don't show it
Before you know it I'm lost at sea
And now that I write and think about it
And the story unfolds
You should take my life
You should take my soul

[Bridge 1]
(Pattern A)
G |----------------------------|----------------------------|
D |----------------------------|----------------------------|
A |----------------------------|----------------------------|
E |--4-----------4--4----------|----------------------------|
B |----------------------------|--7-----------7--7----------|


G |----------------------------|----------------------------|
D |----------------------------|----------------------------|
A |----------------------------|----------------------------|
E |----------------------------|----------------------------|
B |--5-----------5--5----------|--0-----------0--4--7-------|


G |----------------------------|----------------------------|
D |----------------------------|----------------------------|
A |----------------------------|----------------------------|
E |--4-----------4--4----------|----------------------------|
B |----------------------------|--7-----------7--7----------|


G |----------------------------|----------------------------|
D |----------------------------|----------------------------|
A |----------------------------|----------------------------|
E |----------------------------|--7-----------7--6--7-------|
B |--5-----------5--5----------|----------------------------|


[Chorus 1]
You are surrounding all my surroundings
(Silence)
G |----------------------------|----------------------------|
D |----------------------------|----------------------------|
A |----------------------------|----------------------------|
E |----------------------------|----------------------------|
B |----------------------------|----------------------------|


G |----------------------------|----------------------------|
D |----------------------------|----------------------------|
A |----------------------------|----------------------------|
E |----------------------------|----------------------------|
B |----------------------------|----------------------------|


G |----------------------------|----------------------------|
D |----------------------------|----------------------------|
A |----------------------------|----------------------------|
E |----------------------------|----------------------------|
B |----------------------------|----------------------------|


G |----------------------------|----------------------------|
D |----------------------------|----------------------------|
A |----------------------------|----------------------------|
E |----------------------------|----------------------------|
B |----------------------------|----------------------------|
Sounding down the mountain range
Of my left-side brain
You are surrounding all my surroundings
Twisting the kaleidoscope
Behind both of my eyes

[Bridge 2]
(Pattern A)
G |----------------------------|----------------------------|
D |----------------------------|----------------------------|
A |----------------------------|----------------------------|
E |--4-----------4--4----------|----------------------------|
B |----------------------------|--7-----------7--7----------|


G |----------------------------|----------------------------|
D |----------------------------|----------------------------|
A |----------------------------|----------------------------|
E |----------------------------|----------------------------|
B |--5-----------5--5----------|--0-----------0--4--7-------|


G |----------------------------|----------------------------|
D |----------------------------|----------------------------|
A |----------------------------|----------------------------|
E |--4-----------4--4----------|----------------------------|
B |----------------------------|--7-----------7--7----------|


G |----------------------------|----------------------------|
D |----------------------------|----------------------------|
A |----------------------------|----------------------------|
E |----------------------------|--7-----------7--6--7-------|
B |--5-----------5--5----------|----------------------------|

(silence)
G |----------------------------|----------------------------|
D |----------------------------|----------------------------|
A |----------------------------|----------------------------|
E |----------------------------|----------------------------|
B |----------------------------|----------------------------|


G |----------------------------|----------------------------|
D |----------------------------|----------------------------|
A |----------------------------|----------------------------|
E |----------------------------|----------------------------|
B |----------------------------|----------------------------|


G |----------------------------|----------------------------|
D |----------------------------|----------------------------|
A |----------------------------|----------------------------|
E |----------------------------|----------------------------|
B |----------------------------|----------------------------|


G |----------------------------|----------------------------|
D |----------------------------|----------------------------|
A |----------------------------|----------------------------|
E |----------------------------|----------------------------|
B |----------------------------|----------------------------|

[Verse 3]
Remember the moment
(Pattern A)
G |----------------------------|----------------------------|
D |----------------------------|----------------------------|
A |----------------------------|----------------------------|
E |--4-----------4--4----------|----------------------------|
B |----------------------------|--7-----------7--7----------|


G |----------------------------|----------------------------|
D |----------------------------|----------------------------|
A |----------------------------|----------------------------|
E |----------------------------|----------------------------|
B |--5-----------5--5----------|--0-----------0--4--7-------|


G |----------------------------|----------------------------|
D |----------------------------|----------------------------|
A |----------------------------|----------------------------|
E |--4-----------4--4----------|----------------------------|
B |----------------------------|--7-----------7--7----------|


G |----------------------------|----------------------------|
D |----------------------------|----------------------------|
A |----------------------------|----------------------------|
E |----------------------------|--7-----------7--6--7-------|
B |--5-----------5--5----------|----------------------------|
You know exactly where you're goin'
'Cause the next moment before you know it
Time is slowin' and it's rolling still
And the windowsill looks really nice, right?
You think twice about your life
It probably happens at night, right?

[Verse 4]
Fight it, take the pain, ignite it
(Pattern B)
G |----------------------------|----------------------------|
D |----------------------------|----------------------------|
A |----------------------------|----------------------------|
E |--4-----------4--4----------|----------------------------|
B |----------------------------|--7-------------------------|


G |----------------------------|----------------------------|
D |----------------------------|----------------------------|
A |----------------------------|----------------------------|
E |----------------------------|----------------------------|
B |--5-----------5--5----------|--0-------------------------|


G |----------------------------|----------------------------|
D |----------------------------|----------------------------|
A |----------------------------|----------------------------|
E |--4-----------4--4----------|----------------------------|
B |----------------------------|--7-------------------------|


G |----------------------------|----------------------------|
D |----------------------------|----------------------------|
A |----------------------------|----------------------------|
E |----------------------------|--7-------------------------|
B |--5-----------5--5----------|----------------------------|
Tie a noose around your mind
Loose enough to breath fine and tie it
To a tree tell it, you belong to me, this ain't a noose
This is a leash and I have news for you
You must obey me

[Chorus 2]
You are surrounding all my surroundings
(Pattern C) x 4
G |-------|-------|-------|----------|
D |-------|-------|-------|----------|
A |-------|-------|-------|-----4----|
E |--0----|--4----|-------|--2-------|
B |-------|-------|--0----|----------|
Sounding down the mountain range
Of my left-side brain
You are surrounding all my surroundings
Twisting the kaleidoscope
Behind both of my eyes

[Bdrige 2]
(Silence)
Entertain my faith
Entertain my faith
Entertain my faith
Entertain my faith
Entertain my faith
Entertain my faith
(Pattern D) x 2
G |----------------|----------------|----------------|----------------|
D |----------------|----------------|----------------|----------------|
A |----------------|----------------|--1--1--1--1----|--1--1--1--1----|
E |--4--4--4--4----|--4--4--4--4----|----------------|----------------|
B |----------------|----------------|----------------|----------------|


G |----------------|----------------|----------------|----------------|
D |----------------|----------------|----------------|----------------|
A |--2--2--2--2----|--2--2--2--2----|----------------|----------------|
E |----------------|----------------|--0--0--0--0----|--0--0--0--0----|
B |----------------|----------------|----------------|----------------|
Entertain my faith
Entertain my faith
Entertain my faith
Entertain my faith

(Silence)
Lean with it, rock with it
When we gonna stop with it?
Lyrics that mean nothing
We were gifted with thought

Is it time to move our feet
To an introspective beat
It ain't the speakers that bump hard
It's our hearts that make the beat

Lean with it, rock with it
When we gonna stop with it?
Lyrics that mean nothing
We were gifted with thought

Is it time to move our feet
To an introspective beat
It ain't the speakers that bump hard
It's our hearts that make the beat

Lean with it, rock with it
(Pattern A)
G |----------------------------|----------------------------|
D |----------------------------|----------------------------|
A |----------------------------|----------------------------|
E |--4-----------4--4----------|----------------------------|
B |----------------------------|--7-----------7--7----------|


G |----------------------------|----------------------------|
D |----------------------------|----------------------------|
A |----------------------------|----------------------------|
E |----------------------------|----------------------------|
B |--5-----------5--5----------|--0-----------0--4--7-------|


G |----------------------------|----------------------------|
D |----------------------------|----------------------------|
A |----------------------------|----------------------------|
E |--4-----------4--4----------|----------------------------|
B |----------------------------|--7-----------7--7----------|


G |----------------------------|----------------------------|
D |----------------------------|----------------------------|
A |----------------------------|----------------------------|
E |----------------------------|--7-----------7--6--7-------|
B |--5-----------5--5----------|----------------------------|
When we gonna stop with it?
Lyrics that mean nothing
We were gifted with thought

Is it time to move our feet
(Pattern A)
G |----------------------------|----------------------------|
D |----------------------------|----------------------------|
A |----------------------------|----------------------------|
E |--4-----------4--4----------|----------------------------|
B |----------------------------|--7-----------7--7----------|


G |----------------------------|----------------------------|
D |----------------------------|----------------------------|
A |----------------------------|----------------------------|
E |----------------------------|----------------------------|
B |--5-----------5--5----------|--0-----------0--4--7-------|


G |----------------------------|----------------------------|
D |----------------------------|----------------------------|
A |----------------------------|----------------------------|
E |--4-----------4--4----------|----------------------------|
B |----------------------------|--7-----------7--7----------|


G |----------------------------|----------------------------|
D |----------------------------|----------------------------|
A |----------------------------|----------------------------|
E |----------------------------|--7-----------7--6--7-------|
B |--5-----------5--5----------|----------------------------|
To an introspective beat
It ain't the speakers that bump hard
It's our hearts that make the beat

Lean with it, rock with it
(Pattern A)
G |----------------------------|----------------------------|
D |----------------------------|----------------------------|
A |----------------------------|----------------------------|
E |--4-----------4--4----------|----------------------------|
B |----------------------------|--7-----------7--7----------|


G |----------------------------|----------------------------|
D |----------------------------|----------------------------|
A |----------------------------|----------------------------|
E |----------------------------|----------------------------|
B |--5-----------5--5----------|--0-----------0--4--7-------|


G |----------------------------|----------------------------|
D |----------------------------|----------------------------|
A |----------------------------|----------------------------|
E |--4-----------4--4----------|----------------------------|
B |----------------------------|--7-----------7--7----------|


G |----------------------------|----------------------------|
D |----------------------------|----------------------------|
A |----------------------------|----------------------------|
E |----------------------------|--7-----------7--6--7-------|
B |--5-----------5--5----------|----------------------------|
When we gonna stop with it?
Lyrics that mean nothing
We were gifted with thought

(Pattern A)
Is it time to move our feet
G |----------------------------|----------------------------|
D |----------------------------|----------------------------|
A |----------------------------|----------------------------|
E |--4-----------4--4----------|----------------------------|
B |----------------------------|--7-----------7--7----------|


G |----------------------------|----------------------------|
D |----------------------------|----------------------------|
A |----------------------------|----------------------------|
E |----------------------------|----------------------------|
B |--5-----------5--5----------|--0-----------0--4--7-------|


G |----------------------------|----------------------------|
D |----------------------------|----------------------------|
A |----------------------------|----------------------------|
E |--4-----------4--4----------|----------------------------|
B |----------------------------|--7-----------7--7----------|


G |----------------------------|----------------------------|
D |----------------------------|----------------------------|
A |----------------------------|----------------------------|
E |----------------------------|--7-----------7--6--7-------|
B |--5-----------5--5----------|----------------------------|
To an introspective beat
It ain't the speakers that bump hard
It's our hearts that make the beat

Ah ah ah
(Pattern A)
G |----------------------------|----------------------------|
D |----------------------------|----------------------------|
A |----------------------------|----------------------------|
E |--4-----------4--4----------|----------------------------|
B |----------------------------|--7-----------7--7----------|


G |----------------------------|----------------------------|
D |----------------------------|----------------------------|
A |----------------------------|----------------------------|
E |----------------------------|----------------------------|
B |--5-----------5--5----------|--0-----------0--4--7-------|


G |----------------------------|----------------------------|
D |----------------------------|----------------------------|
A |----------------------------|----------------------------|
E |--4-----------4--4----------|----------------------------|
B |----------------------------|--7-----------7--7----------|


G |----------------------------|----------------------------|
D |----------------------------|----------------------------|
A |----------------------------|----------------------------|
E |----------------------------|--7-----------7--6--7-------|
B |--5-----------5--5----------|----------------------------|
Ah ah ah (and I'll be holding on to you)
Ah ah ah (and I'll be holding on to you)
Ah ah ah (and I'll be holding on to you)
And I'll be holding on to you

Ah ah ah
(Pattern A)
G |----------------------------|----------------------------|
D |----------------------------|----------------------------|
A |----------------------------|----------------------------|
E |--4-----------4--4----------|----------------------------|
B |----------------------------|--7-----------7--7----------|


G |----------------------------|----------------------------|
D |----------------------------|----------------------------|
A |----------------------------|----------------------------|
E |----------------------------|----------------------------|
B |--5-----------5--5----------|--0-----------0--4--7-------|


G |----------------------------|----------------------------|
D |----------------------------|----------------------------|
A |----------------------------|----------------------------|
E |--4-----------4--4----------|----------------------------|
B |----------------------------|--7-----------7--7----------|


G |----------------------------|----------------------------|
D |----------------------------|----------------------------|
A |----------------------------|----------------------------|
E |----------------------------|--7-----------7--6--7-------|
B |--5-----------5--5----------|----------------------------|
Ah ah ah (and I'll be holding on to you)
Ah ah ah (and I'll be holding on to you)
Ah ah ah (and I'll be holding on to you)
And I'll be holding on to you
And I'll be holding on to you

Good luck



            
            
Suggest correction
Creating personal tab
Creating personal tab
You can edit any tab online and save it as your Personal.

You can edit, replace or remove any tab part or add personal notes – all changes will be seen only by you.

Personal tabs can be accessed anytime from any device, even offline.
Learn more »
Give kudos to tab author, rate the tab!
1 2 3 4 5
comments
print report bad tab
2 comments total.
0 reply
loloempia 10 Mar 15, 2017 05:29 PM

Yay, thanks!

0 reply
Sabi.R 290 Mar 15, 2017 05:36 PM

You're welcome, i hope it helps.

guest
You may want to rate the tab now too:
select rating
Wanna post a correction for this tab? Suggest correction