Oops, an error
Loading. Please wait.

Hometown Bass

version 1
version 1

Whole song

Interactive

1,585 views 84 this week
4 commentsread comments
1 2 3 4 5
x 6
add to favorites
launch autoscroll
font size
0
reset
guitar tuner
×
Best way to learn
"Hometown"
Autoscroll
slow
fast
+/-
esc
set tempo
stop
Author
Difficulty
Tuning
  follow
novice
D A D G
-------------------------------------------------------------------------------
                       Hometown - Twenty One Pilots
-------------------------------------------------------------------------------
Tabbed by: Asa Wentworth
Email: asawentworth@yahoo.com

Tuning: Drop D

Intro:

0:16
g|----------------------------------------------------|
d|----------------------------------------------------|
a|---3-3--3-3--------------1-1--1-1-------------------|
d|-------------5-5--5-5-5-------------0-0--0-0-0------|

Verse:

0:24
"Be the one, be the one..."
g|----------------------------------------------------|
d|----------------------------------------------------|
a|---3-3--3-3--------------1-1--1-1-------------------| x2
d|-------------5-5--5-5-5-------------0-0--0-0-0------|

Pre Chorus:

0:55
"...dark..."
g|---------------------------------------|
d|-----------------10\-------------------|
a|---------------------------------------|
d|---------------------------------------|

Chorus:

0:56
g|----5---5-------------------------------7---7---------|
d|----------------5---5-------8---8---------------------|
a|--3---3---3h5---------------------3h5-5---5---8p7-----| x2
d|--------------5---5---5-8-8---8-----------------------|

"my shadow tilts its head..."
g|----------------------------------------------------|
d|----------------------------------------------------|
a|---3-3--3-3--------------1-1--1-1-------------------| x2
d|-------------5-5--5-5-5-------------0-0--0-0-0------|

Verse:

1:28
"Put away, put away..."
g|----------------------------------------------------|
d|----------------------------------------------------|
a|---3-3--3-3--------------1-1--1-1-------------------| x2
d|-------------5-5--5-5-5-------------0-0--0-0-0------|

Pre Chorus:

1:59
"...dark..."
g|---------------------------------------|
d|-----------------10\-------------------|
a|---------------------------------------|
d|---------------------------------------|

Chorus:

2:00
g|----5---5-------------------------------7---7---------|
d|----------------5---5-------8---8---------------------|
a|--3---3---3h5---------------------3h5-5---5---8p7-----| x2
d|--------------5---5---5-8-8---8-----------------------|

Bridge:

2:16
g|--------------------------------------|
d|--------------------------------------|
a|---3------------1---------------------| x4
d|----------5------------0--------------|
this is optional, it doesn't play this in the actual recording.

2:48
g|----5---5-------------------------------7---7---------|
d|----------------5---5-------8---8---------------------|
a|--3---3---3h5---------------------3h5-5---5---8p7-----|
d|--------------5---5---5-8-8---8-----------------------|

g|----5---5---------------------------------------------|
d|----------------5---5-------8---8---------------------|
a|--3---3---3h5---------------------3h5-----------------|
d|--------------5---5---5-8-8---8-----------------------|

Final Chorus:

3:04
g|----5---5-------------------------------7---7---------|
d|----------------5---5-------8---8---------------------|
a|--3---3---3h5---------------------3h5-5---5---8p7-----| x4
d|--------------5---5---5-8-8---8-----------------------|

Outro:

3:36
g|--------------------------------------|
d|--------------------------------------|
a|---3------------1-----------3---------|
d|----------5------------0--------------|
once again, this is optional.
Suggest correction
comments
print report bad tab
4 comments total. Showing first comments.
-1 reply
Iamaguy 222 Nov 28, 2016 02:24 PM

not good. just bad

+2 reply
rhyscolbourne2 58 Jan 13, 2017 09:28 AM

8h7 would be 8p7 seeing as you're pulling off not hammering on

guest
You may want to rate the tab now too:
select rating
Wanna post a correction for this tab? Suggest correction