Oops, an error
Loading. Please wait.
We have an official House Of Gold tab made by UG professional guitarists. Check out the tab »
×
18,049 views 255 this week
3 commentsread comments
1 2 3 4 5
x 101
add to favorites
×
Save as Personal and add changes to this tab that will be seen only by you. Learn more ›
×
You can save this tab as Personal to edit and correct it or add notes. All changes will be seen only by you. Learn more »
launch autoscroll
font size
0
reset
how to read this tab
guitar tuner
edit
Autoscroll
slow
fast
+/-
esc
set tempo
stop
Author
Difficulty
-------------------------------------------------------------------------------
                             HOUSE OF GOLD - Twenty One Pilots
-------------------------------------------------------------------------------
Tabbed by: dskyy17
E-mail: destinyskyy1721@gmail.com

Tuning: Standard

Sorry if this is a little rough; its my first time tabbing lol
This is just the chorus btw


She asked me son...
e|-----0----------0--3--0--------0-----------------------|
B|--3-----3--1--3-------------3-----3--1--3--0-----------|
G|----------------------------------------------2--0-----|
D|-------------------------------------------------------|
A|-------------------------------------------------------|
E|-------------------------------------------------------|

And when your father...
e|-----0-----------0--3--0-------0-----------------------|
B|--3-----3--1--3-------------3-------3--3-----1---------|
G|------------------------------------------0------------|
D|-------------------------------------------------------|
A|-------------------------------------------------------|
E|-------------------------------------------------------|
Suggest correction
Creating personal tab
Creating personal tab
You can edit any tab online and save it as your Personal.

You can edit, replace or remove any tab part or add personal notes – all changes will be seen only by you.

Personal tabs can be accessed anytime from any device, even offline.
Learn more »
comments
print report bad tab
3 comments total.
+2 reply
twentyonesophia 10 Feb 18, 2016 05:44 AM

Love this, thanks dude!

+3 reply
cloroxiclean 10 Jun 03, 2017 11:01 AM

its perfect id say if only you could make the whole song

0 reply
dylpickle1404 10 Jul 12, 2017 08:00 PM

yeah, its realy good

guest
You may want to rate the tab now too:
select rating
Wanna post a correction for this tab? Suggest correction