Oops, an error
Loading. Please wait.

House Of Gold Bass

version 2
version 2

Whole song

  • This version contains the entire bass part, not ju... Show more

Interactive

1,258 views 27 this week
2 commentsread comments
1 2 3 4 5
x 4
add to favorites
launch autoscroll
font size
0
reset
guitar tuner
×
Best way to learn
"House Of Gold"
Autoscroll
slow
fast
+/-
esc
set tempo
stop
Author
Difficulty
  follow
intermediate
About this tab version
This version contains the entire bass part, not just the root notes. It also has an additional part written out for the first 2 minutes of the song where the bass doesn't actually have an official part. Was this info helpful? Yes No
Verses 1 and 2, Chorus 1, Verses 3 and 4, and Chorus 2 [0:00—1:50]: Silent

Verse 5 [1:51—2:09]:
  1 2 3 4  1 2 3 4  1 2 3 4  1 2 3   4   1 2 3 4  1 2 3 4   1 2   3 4   1 2 3 4 1 2 3   4
G|--------|--------|--------|-----------|--------|---------|-----------|-------|--5--------|
D|--5---5-|--------|--2---2-|-----------|--5---5-|---------|--5-----2--|--5---5|-----------|
A|3---3--3|--3---3-|0---0--0|--5-----0-5|3---3--3|--3---3-0|3---------0|3---3--|3---3-2-0--|
E|--------|1---1--2|--------|3---1-2----|--------|1---1----|----0-3----|-------|----------3|

Verse 6 [2:10—2:26]:
  1 2 3 4  1 2 3 4  1 2 3 4  1 2 3 4   1 2 3 4  1 2 3 4   1 2 3 4     1 2 3 4
G|--------|--------|--------|---------|--------|---------|-----------|-------|
D|--2---2-|--------|--0---2-|---------|--2---2-|---------|--5-----2--|--5---5|
A|3---3--3|--0---0-|0---0--0|--2---2-0|3---3--3|--3---3-0|3---------0|3---3--|
E|--------|1---1--2|--------|3---3----|--------|1---1----|----0-3----|-------|

Verse 7 [2:27-2:43]: Silent


In the actual recording, the bass part doesn't do anything until the last few verses. However,
since you're the one performing the song, feel free to add this in before then:

Verse 1 [0:00—0:24]: Silent

Verse 2 [0:25-0:41]:
    (Play along with the ukulele. {It doesn't have to be exact})
  1  2  3  4  1  2  3  4  1  2  3  4  1  2  3   4
G|17-17-17-17|-----------|14-14-14-14|-----------|
D|-----------|15-15-15-15|-----------|17-17-17-17|
A|-----------|-----------|-----------|-----------|
E|-----------|-----------|-----------|-----------|

  1  2  3  4  1  2  3  4  1  2  3  4  1  2  3  4
G|17-17-17-17|-----------|17-17-16-16|17-17-17-17|
D|-----------|15-15-15-15|-----------|-----------|
A|-----------|-----------|-----------|-----------|
E|-----------|-----------|-----------|-----------|

Chorus 1 [0:42—0:58]:
    (The piano does eight 6—note runs; play along with the first 4 notes of each
     {The last note of each run is held until the beginning of the next})
  1   2   3 4 1   2   3 4 1   2   3 4 1   2   3 4 1   2   3 4 1   2   3 4 1   2   3 4 1   2   3 4
G|-----------|-----------|-----------|-----------|-----------|-----------|-----------|-----------|
D|-----------|-----------|-----------|-----------|-----------|-----------|-----------|-----------|
A|----0-0----|----3-0----|--0—5—5----|----0-1----|----0------|--0-3-3----|--0--------|3-3-3-3----|
E|1-3--------|1-3--------|3----------|1-3--------|1—3---1----|3----------|1---3-1----|-----------|

Verses 3 and 4 [0:59—1:34]:
    (Play along with the kick drum)
  1 2 3 4 1 2 3 4 1 2 3 4 1 2 3 4 1 2 3 4 1 2 3 4 1 2 3 4 1 2 3 4 1 2 3 4
G|-------|-------|-------|-------|-------|-------|-------|-------|-------|
D|-------|-------|-------|-------|-------|-------|-------|-------|-------| x2
A|3-3-3-3|-------|0-0-0-0|-------|3-3-3-3|-------|3-3-2-2|3-3-3-3|3-3-3-3|
E|-------|1-1-1-1|-------|3-3-3-3|-------|1-1-1-1|-------|-------|-------|

Chorus 2 [1:35-1:50]:
    (Same as last time)
  1   2   3 4 1   2   3 4 1   2   3 4 1   2   3 4 1   2   3 4 1   2   3 4 1   2   3 4 1   2   3 4
G|-----------|-----------|-----------|-----------|-----------|-----------|-----------|-----------|
D|-----------|-----------|-----------|-----------|-----------|-----------|-----------|-----------|
A|----0-0----|----3-0----|--0—5—5----|----0-1----|----0------|--0-3-3----|--0--------|3-3-3-3----|
E|1-3--------|1-3--------|3----------|1-3--------|1—3---1----|3----------|1---3-1----|-----------|

Verse 5 [1:51—2:09]:
  1 2 3 4  1 2 3 4  1 2 3 4  1 2 3   4    1 2 3 4  1 2 3 4   1 2   3 4   1 2 3 4 1 2 3   4
G|--------|--------|--------|------------|--------|---------|-----------|-------|--5--------|
D|--5---5-|--------|--2---2-|------------|--5---5-|---------|--5-----2--|--5---5|-----------|
A|3---3--3|--3---3-|0---0--0|--5-----0-5-|3---3--3|--3---3-0|3---------0|3---3--|3---3-2-0--|
E|--------|1---1--2|--------|3---1-2-----|--------|1---1----|----0-3----|-------|----------3|

Verse 6 [2:10—2:26]:
  1 2 3 4  1 2 3 4  1 2 3 4  1 2 3 4   1 2 3 4  1 2 3 4   1 2   3 4   1 2 3 4
G|--------|--------|--------|---------|--------|---------|-----------|-------|
D|--2---2-|--------|--0---2-|---------|--2---2-|---------|--5-----2--|--5---5|
A|3---3--3|--0---0-|0---0--0|--2---2-0|3---3--3|--3---3-0|3---------0|3---3--|
E|--------|1---1--2|--------|3---3----|--------|1---1----|----0-3----|-------|

Verse 7 [2:27-2:43]: Silent
Suggest correction
comments
print report bad tab
2 comments total.
-1 reply
Iamaguy 222 Sep 30, 2016 06:38 PM

does not sound good

guest
You may want to rate the tab now too:
select rating
Wanna post a correction for this tab? Suggest correction