Oops, an error
Loading. Please wait.

Isle Of Flightless Birds intro tab

version 2
version 2

Intro

Whole song

  • This is an amazing song by Twenty-one Pilots, and ... Show more
580 views 9 this week
1 commentread comment
1 2 3 4 5
x 3
add to favorites
×
Save as Personal and add changes to this tab that will be seen only by you. Learn more ›
×
You can save this tab as Personal to edit and correct it or add notes. All changes will be seen only by you. Learn more »
launch autoscroll
font size
0
reset
how to read this tab
guitar tuner
edit
Autoscroll
slow
fast
+/-
esc
set tempo
stop
[Intro]
    Em          D             G       D       Am    B
A|--2--2-0------0------0------2--0----0-------0-----2--------------------|
E|--3------3-2--2--2-3---3-2--3----3--2--0----0-----2--------------------|
C|--4-----------2-------------2-------2----2--0--0--3--------------------|
G|--0-----------2-------------0-------2-------2-----4--------------------|

    Em           D              G      D      Am    B
A:|-2---2-0------0-----0-2-0----2--0---0-------0-----2-------------------|
E:|-3-------3-2--2--2-3------3--3---3--2--0----0-----2-------------------|
C:|-4------------2--------------2------2----2--0--0--3-------------------|
G:|-0------------2--------------0------2-------2-----4-------------------|

A:|--------0-2-0-2-3-5-6-9-7-|
E:|2-3-2-3-------------------|
C:|--------------------------|
G:|--------------------------|

[Outro]

A|--5-7-10-5-7-3-------3---------------------------------------------------------|
B|---------------7-------7--3---3------------------------------------------------|[repeat until last line]
G|----------------------------2--------------------------------------------------| 
D|-------------------------------------------------------------------------------|

(Ending)                         or
e|---------5--7--10-----(hold)------------5----7----10-----------------------|
B|----------------------------------------0----0-----0-----------------------|
G|----------------------------------------0----0-----0-----------------------|
D|----------------------------------------0----0-----0-----------------------|

            
            
Suggest correction
Creating personal tab
Creating personal tab
You can edit any tab online and save it as your Personal.

You can edit, replace or remove any tab part or add personal notes – all changes will be seen only by you.

Personal tabs can be accessed anytime from any device, even offline.
Learn more »
Give kudos to tab author, rate the tab!
1 2 3 4 5
comments
print report bad tab
1 comment total.
0 reply
Phanicathedisc0 31 Apr 07, 2017 04:26 PM

tysm for this its great!!!

guest
Wanna post a correction for this tab? Suggest correction