Oops, an error
Loading. Please wait.

Johnny Boy bass

514 views 12 this week
1 commentread comment
1 2 3 4 5
x 3
add to favorites
×
Save as Personal and add changes to this tab that will be seen only by you. Learn more ›
×
You can save this tab as Personal to edit and correct it or add notes. All changes will be seen only by you. Learn more »
launch autoscroll
font size
0
reset
guitar tuner
edit
Autoscroll
slow
fast
+/-
esc
set tempo
stop
About this tab version
There are no other Johnny Boy Bass tabs. Was this info helpful? Yes No
Johnny Boy- twenty one pilots

TABBED BY: Guitar Player21


[Intro] x2

G|---------------------------------------------------------------------------|
D|---------------------------------------------------------------------------|
A|-3-3-3-3-3-3-3-3-3--5-5-5-5-5-5-5--0-0-0-0-0-0-0-0-------------------------|
E|----------------------------------------------------1-1-1-1--3-3-3-3-------|


[Verse]

He stays home from work this time
He never really told his wife
He never really told a lie but this time he decides that it's alright.
It's alright.
No one really knows his mind and no one knows behind his eyes.
The man deserves a medal
But he's never really won a prize before.
He goes to lock the door.

G|---------------------------------------------------------------------------|
D|---------------------------------------------------------------------------|
A|-3-3-3-3-3-3-3-3-3--5-5-5-5-5-5-5--0-0-0-0-0-0-0-0-------------------------|
E|----------------------------------------------------1-1-1-1--3-3-3-3-------|

G|---------------------------------------------------------------------------|
D|---------------------------------------------------------------------------|
A|-3-3-3-3-3-3-3-3-3--5-5-5-5-5-5-5--0-0-0-0-0-0-0-0-------------------------|
E|----------------------------------------------------1-1-1-1--3-3-3-3-------|

G|---------------------------------------------------------------------------|
D|---------------------------------------------------------------------------|
A|-3-3-3-3-3-3-3-3-3--5-5-5-5-5-5-5--0-0-0-0-0-0-0-0-------------------------|
E|----------------------------------------------------1-1-1-1--3-3-3-3-------|

G|---------------------------------------------------------------------------|
D|---------------------------------------------------------------------------|
A|-3-3-3-3-3-3-3-3-3--5-5-5-5-5-5-5--0-0-0-0-0-0-0-0-------------------------|
E|----------------------------------------------------1-1-1-1--3-3-3-3-------|


[Pre-Chorus]

He is falling in love
He knows it's enough
And the world looks down and frowns

G|---------------------------------------------------|
D|---------------------------------------------------|
A|-----------------0-0-0-0---------------------------|
E|-1-1-1-1-1-1-1-1---------3-3-3-3-------------------|

G|---------------------------------------------------|
D|---------------------------------------------------|
A|-3-3-3-3-3-3-3-3-----------------------------------|
E|-----------------0-0-0-0--3-3-3-3--1-1-1-1-1-1-1-1-|

G|---------------------------------------------------|
D|---------------------------------------------------|
A|--0-0-0-0------------------------------------------|
E|-----------3-3-3-3--0-0-0-0-0-0-0-0--3-3-3-3-3-3-3-|


[Chorus]

Get up Johnny boy, get up Johnny boy,
Get up 'cause the world has left you lying on the ground.
You're my pride and joy, you're my pride and joy.
Get up Johnny boy because we all need you now.

We all need you now.

G|---------------------------------------------------------------------------|
D|---------------------------------------------------------------------------|
A|-3-3-3-3-3-3-3-3--5-5-5-5-5-5-5-5--0-0-0-0-0-0-0-0-------------------------|
E|---------------------------------------------------------------------------|

G|---------------------------------------------------------------------------|
D|---------------------------------------------------------------------------|
A|-------------------3-3-3-3-3-3-3-3-----------------------------------------|
E|-1-1-1-1--3-3-3-3----------------------------------------------------------|

G|---------------------------------------------------------------------------|
D|---------------------------------------------------------------------------|
A|-3-3-3-3-3-3-3-3--5-5-5-5-5-5-5-5--0-0-0-0-0-0-0-0-------------------------|
E|---------------------------------------------------------------------------|

G|---------------------------------------------------------------------------|
D|---------------------------------------------------------------------------|
A|-------------------3-3-3-3-3-3-3-3-----------------------------------------|
E|-1-1-1-1--3-3-3-3----------------------------------------------------------|


[Intro]

G|---------------------------------------------------------------------------|
D|---------------------------------------------------------------------------|
A|-3-3-3-3-3-3-3-3-3--5-5-5-5-5-5-5--0-0-0-0-0-0-0-0-------------------------|
E|----------------------------------------------------1-1-1-1--3-3-3-3-------|


[Verse]

Someone said, "Where you going?"
Someone said to you, "Goodbye."
They deflect the disrespect when they say that they blame it on the times
They blame it on the time.
We all know you're qualified to fix a chair and love your wife
They all know you're qualified but they lie when they blame it on the times.
And we blame it on the times.


G|---------------------------------------------------------------------------|
D|---------------------------------------------------------------------------|
A|-3-3-3-3-3-3-3-3-3--5-5-5-5-5-5-5--0-0-0-0-0-0-0-0-------------------------|
E|----------------------------------------------------1-1-1-1--3-3-3-3-------|

G|---------------------------------------------------------------------------|
D|---------------------------------------------------------------------------|
A|-3-3-3-3-3-3-3-3-3--5-5-5-5-5-5-5--0-0-0-0-0-0-0-0-------------------------|
E|----------------------------------------------------1-1-1-1--3-3-3-3-------|

G|---------------------------------------------------------------------------|
D|---------------------------------------------------------------------------|
A|-3-3-3-3-3-3-3-3-3--5-5-5-5-5-5-5--0-0-0-0-0-0-0-0-------------------------|
E|----------------------------------------------------1-1-1-1--3-3-3-3-------|

G|---------------------------------------------------------------------------|
D|---------------------------------------------------------------------------|
A|-3-3-3-3-3-3-3-3-3--5-5-5-5-5-5-5--0-0-0-0-0-0-0-0-------------------------|
E|----------------------------------------------------1-1-1-1--3-3-3-3-------|


[Pre-Chorus]

He is falling in love
He knows it's enough
And the world looks down and frowns

G|---------------------------------------------------|
D|---------------------------------------------------|
A|-----------------0-0-0-0---------------------------|
E|-1-1-1-1-1-1-1-1---------3-3-3-3-------------------|

G|---------------------------------------------------|
D|---------------------------------------------------|
A|-3-3-3-3-3-3-3-3-----------------------------------|
E|-----------------0-0-0-0--3-3-3-3--1-1-1-1-1-1-1-1-|

G|---------------------------------------------------|
D|---------------------------------------------------|
A|--0-0-0-0------------------------------------------|
E|-----------3-3-3-3--0-0-0-0-0-0-0-0--3-3-3-3-3-3-3-|


Chorus]

Get up Johnny boy, get up Johnny boy,
Get up 'cause the world has left you lying on the ground.
You're my pride and joy, you're my pride and joy.
Get up Johnny boy because we all need you now.

We all need you now.

G|---------------------------------------------------------------------------|
D|---------------------------------------------------------------------------|
A|-3-3-3-3-3-3-3-3--5-5-5-5-5-5-5-5--0-0-0-0-0-0-0-0-------------------------|
E|---------------------------------------------------------------------------|

G|---------------------------------------------------------------------------|
D|---------------------------------------------------------------------------|
A|-------------------3-3-3-3-3-3-3-3-----------------------------------------|
E|-1-1-1-1--3-3-3-3----------------------------------------------------------|

G|---------------------------------------------------------------------------|
D|---------------------------------------------------------------------------|
A|-3-3-3-3-3-3-3-3--5-5-5-5-5-5-5-5--0-0-0-0-0-0-0-0-------------------------|
E|---------------------------------------------------------------------------|

G|---------------------------------------------------------------------------|
D|---------------------------------------------------------------------------|
A|-------------------3-3-3-3-3-3-3-3-----------------------------------------|
E|-1-1-1-1--3-3-3-3----------------------------------------------------------|

[Bridge] x3

I will carry all your names and I will carry all your shame
And I will carry all your names and I will carry all your shame
And I will carry all your names and I will carry all your shame

G|---------------------------------------------------------------------------|
D|---------------------------------------------------------------------------|
A|-0-0-0-0-0-0-0-0-------------------3-3-3-3-3-3-3-3-------------------------|
E|------------------1-1-1-1-1-1-1-1-------------------3-3-3-3--0-0-0-0-------|


Chorus] x2

Get up Johnny boy, get up Johnny boy,
Get up 'cause the world has left you lying on the ground.
You're my pride and joy, you're my pride and joy.
Get up Johnny boy because we all need you now.

We all need you now.

G|---------------------------------------------------------------------------|
D|---------------------------------------------------------------------------|
A|-3-3-3-3-3-3-3-3--5-5-5-5-5-5-5-5--0-0-0-0-0-0-0-0-------------------------|
E|---------------------------------------------------------------------------|

G|---------------------------------------------------------------------------|
D|---------------------------------------------------------------------------|
A|-------------------3-3-3-3-3-3-3-3-----------------------------------------|
E|-1-1-1-1--3-3-3-3----------------------------------------------------------|

G|---------------------------------------------------------------------------|
D|---------------------------------------------------------------------------|
A|-3-3-3-3-3-3-3-3--5-5-5-5-5-5-5-5--0-0-0-0-0-0-0-0-------------------------|
E|---------------------------------------------------------------------------|

G|---------------------------------------------------------------------------|
D|---------------------------------------------------------------------------|
A|-------------------3-3-3-3-3-3-3-3-----------------------------------------|
E|-1-1-1-1--3-3-3-3----------------------------------------------------------|


Never give up. Stay strong. We all need you now.

Śtåÿ Åłïvę
************************************

            
            
Suggest correction
Creating personal tab
Creating personal tab
You can edit any tab online and save it as your Personal.

You can edit, replace or remove any tab part or add personal notes – all changes will be seen only by you.

Personal tabs can be accessed anytime from any device, even offline.
Learn more »
Give kudos to tab author, rate the tab!
1 2 3 4 5
comments
print report bad tab
1 comment total.
0 reply
Guitar Player21 219 Mar 21, 2017 06:34 PM, edited at 10:35 pm

Anyone who has a UG account please upvote this!

guest
You may want to rate the tab now too:
select rating
Wanna post a correction for this tab? Suggest correction