Oops, an error
Loading. Please wait.

Kitchen Sink tab

version 1
version 1

Whole song

  • Follows the piano parts on the studio albums, prob... Show more

Interactive

457 views 66 this week
no commentswrite comment
1 2 3 4 5
x 4
add to favorites
×
Save as Personal and add changes to this tab that will be seen only by you. Learn more ›
×
You can save this tab as Personal to edit and correct it or add notes. All changes will be seen only by you. Learn more »
launch autoscroll
font size
0
reset
how to read this tab
guitar tuner
edit
Autoscroll
slow
fast
+/-
esc
set tempo
stop
About this tab version
Follows the piano parts on the studio albums, probably sounds good over an acoustic version. Was this info helpful? Yes No
[Intro]
After the percussion intro, the piano/synth lead:
e|-------------------------------------------------|
B|-------------------------------------------------|
G|-11-----13--16--13-----11--6--8-----11--6--3-----|
D|-------------------------------------------------|
A|-------------------------------------------------|
E|-------------------------------------------------|

e|-------------------------------------------------------|
B|-------------------------------------------------------|
G|-11-----13--16--13-----11--6--8-----11--6--3-----4-----|
D|-------------------------------------------------------|
A|-------------------------------------------------------|
E|-------------------------------------------------------|

e|-------------------------------------------------------|
B|-------------------------------------------------------|
G|-11-----13--16--13-----11--6--8-----11--6--3-----------|
D|-------------------------------------------------------|
A|-------------------------------------------------------|
E|-------------------------------------------------------|

[Verse]
e|-11----11----11----11----11----11----11----11----11----11----11----11----12----12----12----14-12---|
B|----12----12----12----12----12----12----12----12----12----12----12----12----12----12----12---------|
G|---------------------------------------------------------------------------------------------------|
D|---------------------------------------------------------------------------------------------------|
A|---------------------------------------------------------------------------------------------------|
E|---------------------------------------------------------------------------------------------------|

e|-11----11----11----11----11----11----11----11----9----9----9----9----9----9----9----9------|
B|----12----12----12----12----12----12----12----12---12---12---12---12---11---11---11---11---|
G|-------------------------------------------------------------------------------------------|
D|-------------------------------------------------------------------------------------------|
A|-------------------------------------------------------------------------------------------|
E|-------------------------------------------------------------------------------------------|

e|-11----11----11----11----11----11----11----11----11----11----11----11----12----12----12----14-12---|
B|----12----12----12----12----12----12----12----12----12----12----12----12----12----12----12---------|
G|---------------------------------------------------------------------------------------------------|
D|---------------------------------------------------------------------------------------------------|
A|---------------------------------------------------------------------------------------------------|
E|---------------------------------------------------------------------------------------------------|

e|-11----11----11----11----11----11----11----11----9----9----9----9----9----9----9----9------|
B|----12----12----12----12----12----12----12----12---12---12---12---12---11---11---11---11---|
G|-------------------------------------------------------------------------------------------|
D|-------------------------------------------------------------------------------------------|
A|-------------------------------------------------------------------------------------------|
E|-------------------------------------------------------------------------------------------|

[Chorus]
Just percussion and bass until 2:06
e|-11----11----11----11----11----11----11----11----11----11----11----11----12----12----12----14-12---|
B|----12----12----12----12----12----12----12----12----12----12----12----12----12----12----12---------|
G|---------------------------------------------------------------------------------------------------|
D|---------------------------------------------------------------------------------------------------|
A|---------------------------------------------------------------------------------------------------|
E|---------------------------------------------------------------------------------------------------|

e|-11----11----11----11----11----11----11----11----9----9----9----9----9----9----9----9------|
B|----12----12----12----12----12----12----12----12---12---12---12---12---11---11---11---11---|
G|-------------------------------------------------------------------------------------------|
D|-------------------------------------------------------------------------------------------|
A|-------------------------------------------------------------------------------------------|
E|-------------------------------------------------------------------------------------------|

e|-11----11----11----11----11----11----11----11----11----11----11----11----12----12----12----14-12---|
B|----12----12----12----12----12----12----12----12----12----12----12----12----12----12----12---------|
G|---------------------------------------------------------------------------------------------------|
D|---------------------------------------------------------------------------------------------------|
A|---------------------------------------------------------------------------------------------------|
E|---------------------------------------------------------------------------------------------------|

e|-11----11----11----11----11----11----11----11----9----9----9----9----9----9----9----9------|
B|----12----12----12----12----12----12----12----12---12---12---12---12---11---11---11---11---|
G|-------------------------------------------------------------------------------------------|
D|-------------------------------------------------------------------------------------------|
A|-------------------------------------------------------------------------------------------|
E|-------------------------------------------------------------------------------------------|

[Verse]
e|-11----11----11----11----11----11----11----11----11----11----11----11----12----12----12----14-12---|
B|----12----12----12----12----12----12----12----12----12----12----12----12----12----12----12---------|
G|---------------------------------------------------------------------------------------------------|
D|---------------------------------------------------------------------------------------------------|
A|---------------------------------------------------------------------------------------------------|
E|---------------------------------------------------------------------------------------------------|

e|-11----11----11----11----11----11----11----11----9----9----9----9----9----9----9----9------|
B|----12----12----12----12----12----12----12----12---12---12---12---12---11---11---11---11---|
G|-------------------------------------------------------------------------------------------|
D|-------------------------------------------------------------------------------------------|
A|-------------------------------------------------------------------------------------------|
E|-------------------------------------------------------------------------------------------|
Drum break with fast rap

[Chorus]
Just percussion and bass until 3:46
e|-----------------------------------------------------------------|
B|------------------------------7~~~------------------------7--9---|
G|--------------------------------------------8-6------------------|
D|-6--6--6--6--8-9-------------------9--9--9-----------------------|
A|------------------7--7--7--7---------------------9--9--9---------|
E|-----------------------------------------------------------------|

e|----------------------------------------------------------------|
B|----------------------------------------------------------------|
G|----------------------------------------------------------------|
D|-6--6--6--6--8-9-----------------9--9--9--9--8--8--8----8--11---|
A|------------------7--7--7--7--7----------------------11---------|
E|----------------------------------------------------------------|

e|-----------------------------------------------------------------|
B|------------------------------7~~~------------------------7--9---|
G|--------------------------------------------8-6------------------|
D|-6--6--6--6--8-9-------------------9--9--9-----------------------|
A|------------------7--7--7--7---------------------9--9--9---------|
E|-----------------------------------------------------------------|

e|----------------------------------------------------------------|
B|----------------------------------------------------------------|
G|----------------------------------------------------------------|
D|-6--6--6--6--8-9-----------------9--9--9--9--8--8--8----8--11---|
A|------------------7--7--7--7--7----------------------11---------|
E|----------------------------------------------------------------|

e|-----------------------------------------------------------------|
B|------------------------------7~~~------------------------7--9---|
G|--------------------------------------------8-6------------------|
D|-6--6--6--6--8-9-------------------9--9--9-----------------------|
A|------------------7--7--7--7---------------------9--9--9---------|
E|-----------------------------------------------------------------|

e|----------------------------------------------------------------|
B|----------------------------------------------------------------|
G|----------------------------------------------------------------|
D|-6--6--6--6--8-9-----------------9--9--9--9--8--8--8----8--11---|
A|------------------7--7--7--7--7----------------------11---------|
E|----------------------------------------------------------------|

e|-----------------------------------------------------------------|
B|------------------------------7~~~------------------------7--9---|
G|--------------------------------------------8-6------------------|
D|-6--6--6--6--8-9-------------------9--9--9-----------------------|
A|------------------7--7--7--7---------------------9--9--9---------|
E|-----------------------------------------------------------------|

e|----------------------------------------------------------------|
B|----------------------------------------------------------------|
G|----------------------------------------------------------------|
D|-6--6--6--6--8-9-----------------9--9--9--9--8--8--8----8--11---|
A|------------------7--7--7--7--7----------------------11---------|
E|----------------------------------------------------------------|

[Outro]
e|-------------------------------------------------------|
B|-------------------------------------------------------|
G|-11-----13--16--13-----11--6--8-----11--6--3-----4-----|
D|-------------------------------------------------------|
A|-------------------------------------------------------|
E|-------------------------------------------------------|

e|-------------------------------11-----14-----------|
B|-----------------------12--14-------------14--11---|
G|-11-----13--16--13---------------------------------|
D|---------------------------------------------------|
A|---------------------------------------------------|
E|---------------------------------------------------|

************************************

| ~   Vibrato

************************************
Suggest correction
Creating personal tab
Creating personal tab
You can edit any tab online and save it as your Personal.

You can edit, replace or remove any tab part or add personal notes – all changes will be seen only by you.

Personal tabs can be accessed anytime from any device, even offline.
Learn more »
comments
print report bad tab
guest
You may want to rate the tab now too:
select rating
Wanna post a correction for this tab? Suggest correction