Oops, an error
Loading. Please wait.
We have an official Lane Boy tab made by UG professional guitarists. Check out the tab »
×

Lane Boy tab

version 1
version 1

Whole song

  • This tab is based off the Music Video (https://www... Show more

Interactive

Video

19,644 views 108 this week
2 commentsread comments
1 2 3 4 5
x 18
add to favorites
×
Save as Personal and add changes to this tab that will be seen only by you. Learn more ›
×
You can save this tab as Personal to edit and correct it or add notes. All changes will be seen only by you. Learn more »
launch autoscroll
font size
0
reset
how to read this tab
guitar tuner
edit
Autoscroll
slow
fast
+/-
esc
set tempo
stop
Author
Standard Tuning

[Intro/Chorus]

 *  Palm mute the strings for notes that rake up
e|-----------10------------------------------------------------|
B|---------10--------------10-------------10-------------10----|
G|-------10--------------10-------------10-------------10------|
D|-12-12---------------12-------------12-------------12--------|
A|------------10-12-12-------10-12-12-------10-12-12--------10-|
E|-------------------------------------------------------------|


[1st Verse]
(is just bass)


[2nd Verse]

 *  Notes in parenthesis optional
e|-(6)-(6)--5---5---5---5---5--5--5---3--|
B|--7---7---5---5---5---5---5--5--5---3--|
G|--8---8---5---5---5---5---5--5--5---4--|
D|--8---8---7---7---7---7---7--7--7---5--|
A|-(6)-(6)-(7)-(5)-(7)-(5)-(7)(7)(7)-(5)-|
E|---------(5)-(5)-(5)-(5)-(5)(5)(5)-(3)-|


[Bridge]

(Synth part might be a little iffy)

 Piano part before synth section
e|-10~----------10~---------|
B|------10~----------10~----|
G|--------------------------|
D|--------------------------|
A|--------------------------|
E|--------------------------|

 Synth
e|---------------------------------|
B|---------------------------------|
G|---------------------------------| repeat as needed
D|-55-55-55-55-5-5-55-55-55-55-5-5-|
A|---------------------------------|
E|---------------------------------|

 *  You can choose to octave it or not.  Notes in parenthesis are optional
e|-------------------------------------------------------------------------------------------------|
B|-(88-88-88-88-8-8-1010-1010-1010-1010-10-10-1313-1313-1313-1313-13-13-1212-1212-1212-1212-12-12)-|
G|-(xx-xx-xx-xx-x-x--x-x--x-x--x-x--x-x--x--x--x-x--x-x--x-x--x-x--x--x--x-x--x-x--x-x--x-x--x--x)-|
D|--55-55-55-55-5-5--7-7--7-7--7-7--7-7--7--7-1010-1010-1010-1010-10-10--9-9--9-9--9-9--9-9--9--9--|
A|-------------------------------------------------------------------------------------------------|
E|-------------------------------------------------------------------------------------------------|


[Outro]

e|--------------8~----7~----|
B|-8~----10~----------------|
G|--------------------------| 4x
D|--------------------------|
A|--------------------------|
E|--------------------------|



************************************

| x    Dead note
| ~    Vibrato 

************************************

            
            
Suggest correction
Creating personal tab
Creating personal tab
You can edit any tab online and save it as your Personal.

You can edit, replace or remove any tab part or add personal notes – all changes will be seen only by you.

Personal tabs can be accessed anytime from any device, even offline.
Learn more »
comments
print report bad tab
2 comments total.
+3 reply
ezzabryce 10 Apr 12, 2016 07:42 AM

Maybe a more simple version? This is very strange :s

+2 reply
ezzabryce 10 Jun 01, 2017 01:14 PM

1 year later and kicking myself because i was stupid and didn't know how tabs work

guest
You may want to rate the tab now too:
select rating
Wanna post a correction for this tab? Suggest correction