Oops, an error
Loading. Please wait.

Lane Boy Bass Tab

version 2
version 2

Whole song

  • The other version is complicated and doesn't sound... Show more
  • This is the original bass track from the song Lane... Show more
  • I saw the other bass tabs of Lane Boy and I did th... Show more

Interactive

274 views 18 this week
no commentswrite comment
1 2 3 4 5
3 more votes to show rating
add to favorites
launch autoscroll
font size
0
reset
guitar tuner
Autoscroll
slow
fast
+/-
esc
set tempo
stop
Help us to improve Ultimate-Guitar.com Take our survey!
×
Author
Difficulty
intermediate
About this tab version
The other version is complicated and doesn't sound right, this version is better and easier. Was this info helpful? Yes No

[Chorus]

G|---------------------10---------|
D|-----------7-7--7-7-----12-12-10|
A|--5-5-5-7-----------------------| X2
E|--------------------------------|


[Verse 1]

G|--------------------5---------|
D|-----------7-7--7-7---7-7-7-5-|
A|--5-5-5-7---------------------| X4
E|------------------------------|

[PAUSE]

G|---------|
D|--7-7-7-5|
A|---------|
E|---------|

G|----------------------------|
D|-----------7-7--7-7---------|
A|--5-5-5-7-------------------|
E|----------------------------|

[Chorus]

G|---------------------10----------|
D|-----------7-7--7-7-----12-12-10-|
A|--5-5-5-7------------------------| X2
E|---------------------------------|

[Verse 2]

G|--------------------5---------|
D|-----------7-7--7-7---7-7-7-5-|
A|--5-5-5-7---------------------| X2
E|------------------------------|

G|--------------------5-----------5-------------|
D|----------7-7-7-5-7---7-7-7-5-7---7-7-7-5-7-5-|
A|--5-3-5-7-------------------------------------|
E|----------------------------------------------|

[PAUSE]

[Chorus] x2

G|---------------------10----------|
D|-----------7-7--7-7-----12-12-10-|
A|--5-5-5-7------------------------| X2
E|---------------------------------|


[Refrain]  (BASS STARTS AT 2:32)
G|-------|
D|-------|
A|-------| x15
E|-0-0-3-|

G|-------------------------------------------------|
D|-------------------------------------------------|
A|-------------------------------------------------| x6
E|-0-0-0-0-0-0-3-3-3-3-3-3-7-7-7-7-7-7-5-5-5-5-5-5-|


[Chorus] x2 (no words here)

G|---------------------10----------|
D|-----------7-7--7-7-----12-12-10-|
A|--5-5-5-7------------------------| X2
E|---------------------------------|

Suggest correction
Give kudos to tab author, rate the tab!
1 2 3 4 5
comments
print report bad tab
guest
You may want to rate the tab now too:
select rating
Wanna post a correction for this tab? Suggest correction