Oops, an error
Loading. Please wait.
We have an official Lane Boy tab made by UG professional guitarists. Check out the tab »
×

Lane Boy tab

version 2
version 2

Whole song

  • This tab is based off the Music Video (https://www... Show more

Interactive

Video

229 views 18 this week
1 commentread comment
1 2 3 4 5
3 more votes to show rating
add to favorites
×
Save as Personal and add changes to this tab that will be seen only by you. Learn more ›
×
You can save this tab as Personal to edit and correct it or add notes. All changes will be seen only by you. Learn more »
launch autoscroll
font size
0
reset
how to read this tab
guitar tuner
edit
Autoscroll
slow
fast
+/-
esc
set tempo
stop
Author
Difficulty
About this tab version
This tab is based off the Music Video (https://www.youtube.com/watch?v=ywvRgGAd2XI), in comparison to other tabs/tutorials this tab have 2 guitar (one of the guitars remplace the bass) and, in my opinion, it has a more accurate chord progression. Was this info helpful? Yes No
*Guitar 1: Standard tuning
*Guitar 2: Drop D tuning
NOTE: the guitar 1 on the verse it's not necessary, you can do it if you want.
NOTE: sorry for not adding a strumming pattern for the guitar 1, my strumming pattern it's a bit random. 
TIP: the guitar 2 plays the riff at the same time as the vocals, same with guitar 1 on the verse.      

[Intro]

e|--------10|-------------|--------------|-----------------------------------|
B|-------10-|----------10-|-----------10-|----------10-----------------------|
G|------10--|---------10--|----------10--|---------10------------------------|       Guitar 1
D|-12-12----|--------10---|---------10---|--------10-------------------------|       PM
A|----------|-10-12-12----|--10-12-12----|-10-12-12----10--------------------|
E|----------|-------------|--------------|-----------------------------------|x2
 
[Chorus]
e|--------10|-------------|--------------|-----------------------------------|
B|-------10-|----------10-|-----------10-|----------10-----------------------|
G|------10--|---------10--|----------10--|---------10------------------------|       Guitar 1
D|-12-12----|--------10---|---------10---|--------10-------------------------|       PM
A|----------|-10-12-12----|--10-12-12----|-10-12-12----10--------------------|
E|----------|-------------|--------------|-----------------------------------|x2

e|---------------------------------------------------------------------------|
B|---------------------------------------------------------------------------|
G|---------------------------------------------------------------------------|       Guitar 2
D|---------------------------------------------------------------------------|      
A|-5-5-5----------------5----------------------------------------------------|
D|-------5--7-7---7-7-----7-7-5----------------------------------------------|x2


[Verse]
   Dm      G Am   Am   G                    Am  G   Dm      G Am   Am   G                
e|-5-------3/5-5---5---3-------|------------5---3---6--x-x--3/5-5---5---3----|
B|-6--x-x--3/5-5---5---3-------|------------5---3---6--x-x--3/5-5---5---3----|
G|-7--x-x--4/5-5---5---4-------|4x-(Pause)--5---4---7--x-x--4/5-5---5---4----|       Guitar 1
D|-7--x-x--5/7-7---7---5-------|------------7---5---7--x-x--5/7-7---7---5----|      
A|-5--x-x--5/7-7---7---5-------|------------7---5---5--x-x--5/7-7---7---5----|
E|----x-x--3/5-5---5---3-------|------------5---3------x-x--3/5-5---5---3----|

e|-----------------------------|---------------------------------------------|
B|-----------------------------|---------------------------------------------|
G|-----------------------------|4x-(Pause)-----------------------------------|       Guitar 2
D|-----------------------------|---------------------------------------------|      
A|-5-5-5----------------5------|------------5-------5-5-5--------------------|
D|-------5--7-7---7-7-----7-7-5|--------------7-7-5-------5--7-7---7-7-------|

[Chorus]

e|--------10|-------------|--------------|-----------------------------------|
B|-------10-|----------10-|-----------10-|----------10-----------------------|
G|------10--|---------10--|----------10--|---------10------------------------|       Guitar 1
D|-12-12----|--------10---|---------10---|--------10-------------------------|       PM
A|----------|-10-12-12----|--10-12-12----|-10-12-12----10--------------------|
E|----------|-------------|--------------|-----------------------------------|x2

e|---------------------------------------------------------------------------|
B|---------------------------------------------------------------------------|
G|---------------------------------------------------------------------------|       Guitar 2
D|---------------------------------------------------------------------------|      
A|-5-5-5----------------5----------------------------------------------------|
D|-------5--7-7---7-7-----7-7-5----------------------------------------------|x2


e|--------10|-------------|--------------|-----------------------------------|
B|-------10-|----------10-|-----------10-|----------10-----------------------|
G|------10--|---------10--|----------10--|---------10------------------------|       Guitar 1
D|-12-12----|--------10---|---------10---|--------10-------------------------|       PM
A|----------|-10-12-12----|--10-12-12----|-10-12-12----10--------------------|
E|----------|-------------|--------------|-----------------------------------|x2

[Verse]
   Dm      G Am   Am   G           Dm    G Am  C
e|-5-------3/5-5---5---3-------|---5-----3/5---3----|------------------------|
B|-6--x-x--3/5-5---5---3-------|---6-x---3/5---5----|------------------------|
G|-7--x-x--4/5-5---5---4-------|2x-7-x-x-4/5---5----|------------------------|       Guitar 1
D|-7--x-x--5/7-7---7---5-------|---7-x-x-5/7---5----|------------------------|      
A|-5--x-x--5/7-7---7---5-------|---5-x-x-5/7---3----|------------------------|
E|----x-x--3/5-5---5---3-------|-----x-x-3/5--------|------------------------|

e|-----------------------------|------------------------|--------------------|
B|-----------------------------|------------------------|--------------------|
G|-----------------------------|2x----------------------|--------------------|       Guitar 2
D|-----------------------------|------------------------|--------------------|      
A|-5-5-5----------------5------|----5-----------------3-|--------------------|
D|-------5--7-7---7-7-----7-7-5|------5-7-7-7-7-7-7-7---|--------------------|

[Chorus]
e|--------10|-------------|--------------|-----------------------------------|
B|-------10-|----------10-|-----------10-|----------10-----------------------|
G|------10--|---------10--|----------10--|---------10------------------------|       Guitar 1
D|-12-12----|--------10---|---------10---|--------10-------------------------|       PM
A|----------|-10-12-12----|--10-12-12----|-10-12-12----10--------------------|
E|----------|-------------|--------------|-----------------------------------|x4

e|---------------------------------------------------------------------------|
B|---------------------------------------------------------------------------|
G|---------------------------------------------------------------------------|       Guitar 2
D|---------------------------------------------------------------------------|      
A|-5-5-5----------------5----------------------------------------------------|
D|-------5--7-7---7-7-----7-7-5----------------------------------------------|x4

[Bridge]
e|-10~-----|-----------------------------------------------------------------|
B|-----10~-|-----------------------------------------------------------------|
G|---------|x6---------------------------------------------------------------|       Guitar 1
D|---------|-----------------------------------------------------------------|    
A|---------|-----------------------------------------------------------------|
E|---------|-----------------------------------------------------------------|

e|---------------------------------------------------------------------------|
B|---------------------------------------------------------------------------|
G|---------------------------------------------------------------------------|       Guitar 2
D|---------------------------------------------------------------------------|       
A|---------------------------------------------------------------------------|
D|-0-0-0h3-3-----------------------------------------------------------------|
(When the guitar 1 played the riff 4 times then next time the guitar 2 starts playing the riff) 

[Chorus]
e|---------------------------------------------------------------------------|
B|---------------------------------------------------------------------------|
G|-12----------12-14-17-16---------------------------------------------------|       Guitar 1
D|--x-----------x--x--x--x---------------------------------------------------|
A|-10----------10-12-15-14---------------------------------------------------|
E|---------------------------------------------------------------------------|
(When the guitar 2 played the riff 4 times the guitar 1 changes to the next riff)
(oh yeah almost forgot, this part you can do it with a strumming pattern like DUDUDU)

e|-----------|---------------------------------------------------------------|
B|-----------|---------------------------------------------------------------|      
G|-----------|x8-------------------------------------------------------------|       Guitar 2
D|-----------|---------------------------------------------------------------|
A|-----------|---------------------------------------------------------------|
D|-0-0-0h3-3-|----0-3-7-5----------------------------------------------------|
(After the riff each note it's played 8 times)

[Outro]
e|--------10|-------------|--------------|-----------------------------------|
B|-------10-|----------10-|-----------10-|----------10-----------------------|
G|------10--|---------10--|----------10--|---------10------------------------|       Guitar 1
D|-12-12----|--------10---|---------10---|--------10-------------------------|       PM
A|----------|-10-12-12----|--10-12-12----|-10-12-12----10--------------------|
E|----------|-------------|--------------|-----------------------------------|x2

e|---------------------------------------------------------------------------|
B|---------------------------------------------------------------------------|
G|---------------------------------------------------------------------------|       Guitar 2
D|---------------------------------------------------------------------------|      
A|-5-5-5----------------5----------------------------------------------------|
D|-------5--7-7---7-7-----7-7-5----------------------------------------------|x2



************************************

| x  Dead note
| /  Slide up
| ~  Vibrato
| h  Hammer-on
 

************************************
Suggest correction
Creating personal tab
Creating personal tab
You can edit any tab online and save it as your Personal.

You can edit, replace or remove any tab part or add personal notes – all changes will be seen only by you.

Personal tabs can be accessed anytime from any device, even offline.
Learn more »
Give kudos to tab author, rate the tab!
1 2 3 4 5
comments
print report bad tab
1 comment total.
0 reply
emilieliljegren 10 Apr 25, 2017 10:49 PM

lane boy not lean boy :)

guest
You may want to rate the tab now too:
select rating
Wanna post a correction for this tab? Suggest correction