Oops, an error
Loading. Please wait.

Lane Boy Bass Tab

version 3
version 3

Whole song

  • The other version is complicated and doesn't sound... Show more
  • This is the original bass track from the song Lane... Show more
  • I saw the other bass tabs of Lane Boy and I did th... Show more

Interactive

76 views 9 this week
no commentswrite comment
1 2 3 4 5
2 more votes to show rating
add to favorites
launch autoscroll
font size
0
reset
guitar tuner
Autoscroll
slow
fast
+/-
esc
set tempo
stop
Help us to improve Ultimate-Guitar.com Take our survey!
×
Author
Difficulty
About this tab version
This is the original bass track from the song Lane Boy. It is my second bass tab, and it is easy to play once you get the beat. Enjoy :). Was this info helpful? Yes No
[Intro] (x2)
              > >   > >   (The accent is only for the intro, don't repeat)
G|---------------------------------------------------------------------------|
D|---------------------------------------------------------------------------|
A|--5-5-5-5-7---------------------10-----------------------------------------|
E|------------7-7---7-7--------------12-12-10--------------------------------|


[Verse] (x4)

G|--------------------------------5------------------------------------------|
D|------------7-7---7-7-------------7-7-7-5----------------------------------|
A|--5-5-5-5-7----------------------------------------------------------------|
E|---------------------------------------------------------------------------|

 
This part comes at the end of "Honest, there's a few songs..."

G|---------------------------------------------------------------------------|
D|---------------------------------------------------------------------------|
A|---------------------------------------------------------------------------|
E|------------------------------------------------------7-7-7-5--------------|

G|---------------------------------------------------------------------------|
D|------------7-7---7-7------------------------------------------------------|
A|--5-5-5-5-7----------------------------------------------------------------|
E|---------------------------------------------------------------------------|


[Chorus] (x2)

G|---------------------------------------------------------------------------|
D|---------------------------------------------------------------------------|
A|--5-5-5-5-7---------------------10-----------------------------------------|
E|------------7-7---7-7--------------12-12-10--------------------------------|


[Verse] (x2)

G|--------------------------------5------------------------------------------|
D|------------7-7---7-7-------------7-7-7-5----------------------------------|
A|--5-5-5-5-7----------------------------------------------------------------|
E|---------------------------------------------------------------------------|

G|------------b5----------------b5----------------b5-------------------------|
D|--7-7-7-5-7--------7-7-7-5-7----------7-7-7-5-7--------7-7-7-5-7-b5--------|
A|---------------------------------------------------------------------------|
E|---------------------------------------------------------------------------|


"All these songs I'm hearing..."
G|---------------------------------------------------------------------------|
D|---------------------------------------------------------------------------|
A|---------------------------------------------------------------------------|
E|------------------------------------------------------7-7-7-5--------------|


[Chorus] (x4)

G|---------------------------------------------------------------------------|
D|---------------------------------------------------------------------------|
A|--5-5-5-5-7---------------------10-----------------------------------------|
E|------------7-7---7-7--------------12-12-10--------------------------------|

 [Bridge] (x7)
 There is no lyrics here, so you have to hear when the bass comes in
 
G|---------------------------------------------------------------------------|
D|---------------------------------------------------------------------------|
A|---------------------------------------------------------------------------|
E|---0-0-3-------------------------------------------------------------------|

  Second part of bass (x8)
G|---------------------------------------------------------------------------|
D|---------------------------------------------------------------------------|
A|---------------------------------------------------------------------------|
E|---0-0-3-------------------------------------------------------------------|

  No lyrics here too (x6)
G|---------------------------------------------------------------------------|
D|---------------------------------------------------------------------------|
A|---------------------------------------------------------------------------|
E|--0-0--3-3--7-7--5-5-------------------------------------------------------|


[Outro] (x2)

G|---------------------------------------------------------------------------|
D|---------------------------------------------------------------------------|
A|--5-5-5-5-7---------------------10-----------------------------------------|
E|------------7-7---7-7--------------12-12-10--------------------------------|





| >   Accented note
************************************
Suggest correction
Give kudos to tab author, rate the tab!
1 2 3 4 5
comments
print report bad tab
guest
You may want to rate the tab now too:
select rating
Wanna post a correction for this tab? Suggest correction