Oops, an error
Loading. Please wait.

Lane Boy Bass Tab

version 4
version 4

Whole song

  • The other version is complicated and doesn't sound... Show more
  • This is the original bass track from the song Lane... Show more
  • I saw the other bass tabs of Lane Boy and I did th... Show more

Interactive

121 views 12 this week
1 commentread comment
1 2 3 4 5
x 5
add to favorites
launch autoscroll
font size
0
reset
guitar tuner
Autoscroll
slow
fast
+/-
esc
set tempo
stop
Help us to improve Ultimate-Guitar.com Take our survey!
×
Author
Difficulty
Tuning
intermediate
D A D G B E
About this tab version
I saw the other bass tabs of Lane Boy and I did think they where great but still not quite perfect. So I suppose I made this version with the goal of it being perfect. Hope you you find it decent at least :). Was this info helpful? Yes No
[Chorus]

0:12
G|----------------------------------------------------------------------------------------|
D|---------------------------------------10-7-7---7--5------------------------------------|
A|-5-5-5---7---0---0-------0---0----------------------------------------------------------|
D|----------------------------------------------------------------------------------------| X2


[Verse 1]

0:24

G|----------------------------------------------------------------------------------------|
D|-------------7---7-------7---7--------10-7-7---7---5------------------------------------|
A|-5-5-5---7------------------------------------------------------------------------------|
D|----------------------------------------------------------------------------------------| X4

*Pause*

0:53 "...and what is poppin'..."

G|----------------------------------------------------------------------------------------|
D|-7-7---7---5---------------------7---7-------7---7--------------------------------------|
A|---------------------5-5-5---7----------------------------------------------------------|
D|----------------------------------------------------------------------------------------|


[Chorus]

1:00

G|-----------------------------------------------------------------------------------------|
D|---------------------------------------10-7-7---7---5------------------------------------|
A|-5-5-5---7---0---0-------0---0-----------------------------------------------------------|
D|-----------------------------------------------------------------------------------------| X2

*Pause*


[Verse 2]

1:18 

G|----------------------------------------------|---------------------------------------------|
D|-------------7---7----7---7----10-7-7---7---5-|-------------7---7----7---7---10-7-7---7---5-|
A|-5-5-5---7------------------------------------|-5-5-5---7-----------------------------------|
D|----------------------------------------------|---------------------------------------------|

G|-------------------------5-----------------5------------------------------------------------|
D|-------------7-7-7-7-7-7-------7-7-7-7-7-7-------7-7-7-7-7-7-5------------------------------|
A|-5\3/5---7----------------------------------------------------------------------------------|
D|--------------------------------------------------------------------------------------------|

*Pause*

1:41 "...trust a song that's flawless"

G|--------------------|
D|-7-7---7---5--------|
A|--------------------|
D|--------------------|

[Chorus]

1:42

G|----------------------------------------------------------------------------------------|
D|---------------------------------------10-7-7---7---5-----------------------------------|
A|-5-5-5---7---0---0-------0---0----------------------------------------------------------|
D|----------------------------------------------------------------------------------------| X4

*Pause*


[Refrain]

2:30  

G|------------|
D|------------|
A|------------|
D|-0---0---3--| X7


2:42 (After the low-pitched "Will they be alive tomorrow")

G|------------|------------|------------|---------------------------------------------------|
D|------------|------------|------------|---------------------------------------------------|
A|------------|------------|------------|---------------------------------------------------|
D|-0---0---3--|-0---0---3--|-0---0---3--|-0---0---3-----------------------------------------| 

G|------------|------------|------------|---------------------------------------------------|
D|------------|------------|------------|---------------------------------------------------|
A|------------|------------|------------|---------------------------------------------------|
D|-0---0---0--|-3---3---3--|-7---7---7--|-5---5---5-----------------------------------------| X6

G|------------|------------|------------|---------------------------------------------------|
D|------------|------------|------------|---------------------------------------------------|
A|------------|------------|------------|---------------------------------------------------|
D|-0---0---0--|-3---3---3--|-7---7---7--|-5---5---5~~~--------------------------------------|


[Outro]

3:32

G|-------------------------------------------------------------------------------|
D|-------------------------------------10-7-7-7-7-5------------------------------|
A|-5-5-5---7---0---0-------0---0-------------------------------------------------|
D|-------------------------------------------------------------------------------| X2
Suggest correction
comments
print report bad tab
1 comment total.
+1 reply
Viktoryman 34 Nov 06, 2016 02:09 PM

Please suggest corrections or improvements if you find any mistakes or something that sounds off! :) The goal was to make the perfect tab so don't be shy!

guest
You may want to rate the tab now too:
select rating
Wanna post a correction for this tab? Suggest correction