Oops, an error
Loading. Please wait.

Ode To Sleep bass

version 1
version 1

Whole song

  • This version is unique and accurate, and it is totally original.

Interactive

11,451 views 54 this week
4 commentsread comments
1 2 3 4 5
x 14
add to favorites
×
Save as Personal and add changes to this tab that will be seen only by you. Learn more ›
×
You can save this tab as Personal to edit and correct it or add notes. All changes will be seen only by you. Learn more »
launch autoscroll
font size
0
reset
guitar tuner
edit
Autoscroll
slow
fast
+/-
esc
set tempo
stop
Author
-------------------------------------------------------------------------------
                             Ode To Sleep - twenty | one | pilots
-------------------------------------------------------------------------------
Tabbed by: Ashington
Album: Regional At Best (2011)/ Vessel (2013)

Tuning: Standard (just realised the song's tuning is in drop C- will have that way up soon) 

[Intro & rap verses]
(i.e. "I wake up fine and dandy/On the eve of a day")

Slide from 12 only the first time of each verse
   |
   |
   V
G|---------------------------------------------------------------------------|
D|---------------------------------------------------------------------------|
A|----------------------00-----------------0-3-3-33-3-------0-3-3-33-3-2-2-2-|
E|-12\---0-0-00-0-22-33-----0-0-00-0-22-33------------22-33------------------|

G|---------------------------------------------------------------------------|
D|---------------------------------------------------------------------------|
A|---------------------------------------------------------------------------|
E|-0~----0~-----0~-----0~----------------------------------------------------|

[Singing verses]
(i.e. "I'll stay awake")

G|---------------------------------------------------------------------------------------|
D|---------------------------------------------------------------------------------------|
A|-10-10-10-10-10-10-10-10-10-10-10-10h12p10-9-9-2-2-7-7-7-7-7-7-7-7-0-0-0-0-5-5-5-5-----|
E|---------------------------------------------------------------------------------------| (x4)

G|---------------------------------------------------------------------------|
D|---------------------------------------------------------------------------|
A|---------------------------------------------------------------------------|
E|-10~~~~~~~~----------------------------------------------------------------|

[Chorus]
("But I'll tell them")

G|-------------------------------------------------------------------------|
D|--5--5~------------------------------------------------------------------|
A|--------3--3~-2--2~-5--5~------------------------------------------------|
E|-------------------------------------------------------------------------| (x4)
 

************************************

| h  Hammer-on
| p  Pull-off
| \  Slide down
| ~  Vibrato

************************************
Suggest correction
Creating personal tab
Creating personal tab
You can edit any tab online and save it as your Personal.

You can edit, replace or remove any tab part or add personal notes – all changes will be seen only by you.

Personal tabs can be accessed anytime from any device, even offline.
Learn more »
comments
print report bad tab
4 comments total. Showing first comments.
0 reply
bassplayer52 40 Apr 03, 2016 08:12 PM

On the singing verse, after the hammer on 12 and pull to 10, it sounds more like this:

G|------------------------------------------------------|
D|--------------9-9-------------------------------------|
A|-10h12p10-9-9-----7-7-7-7-7-7-7-7-0-0-0-0-5-5-5-5-----|
E|------------------------------------------------------|


Makes more sense for hand position too, 2 seems a little far to move to then strait back to the 7.

0 reply
macielvictor3 10 Jul 19, 2016 02:37 PM

Hey man, i think that on the singing verse is:

G|---------------------------------------------------------------------------------------|
D|----12-12-12h14p12----------------------------------------------------------------------------------|
A|-10-10-10-10-10-10-10-10-10-10-10-10h12p10-9-9-----7-7-7-7-7-7-7-7-12-12-12-12-------------|
E|-----------------------------------------------7-7-------------------------------------|

and then repeat... for me sounds better

0 reply
ghosthawkergaming 175 Aug 06, 2017 05:09 AM

Honestly very in accurate. Does not bring out the intensity of the bass in the song too. Version 2 is so much better and accurate.

guest
You may want to rate the tab now too:
select rating
Wanna post a correction for this tab? Suggest correction