Oops, an error
Loading. Please wait.

Oh Ms Believer chords

95,594 views 528 this week
7 commentsread comments
1 2 3 4 5
x 245
add to favorites
×
Save as Personal and add changes to this tab that will be seen only by you. Learn more ›
×
You can save this tab as Personal to edit and correct it or add notes. All changes will be seen only by you. Learn more »
launch autoscroll
font size
0
reset
transpose
0
reset
display chords
guitar tuner
edit
Autoscroll
slow
fast
+/-
esc
set tempo
stop
Strumming
There is no strumming pattern for this song yet. and get +5 IQ
This is not super accurate since its not a guitar song to begin with but the chords make 
sense with the tune, so feel free to do your own thing with it of course!



[VERESE] [a cappella w/ tambourine]

Oh Ms. Believer, my pretty sleeper.

Your twisted mind is like snow on the road.

Your shaking shoulders prove that it's colder,

Inside your head, than the winter of death.


[VERSE]
C               F Am
I will tell you, I love you.
        F             C         Am         G
But the muffs on your ears will cater your fears.
C                    F          Am
My nose and feet are running as we start
   F              C     Am          G
To travel through snow. Together we go.

F C Am G           F C Am G
      (Together we go [echo])


[CHORUS]
 F       Am C G
 We get colder,
    F        Am C G
 As we grow older.
 F        Am C G
 We will walk
 F        Am C G
 So much slower.


[INTERLUDE]
F C Am G F C Am G


[VERSE]
 C                F         Am
 Oh Ms. Believer, my pretty weeper.
 F            C                 Am          F   G
 Your twisted thoughts are like snow on the rooftops.
C                           F          Am
 Please take my hand, we're in foreign land
       F              C       Am        G
 As we travel through snow. Together we go.

F C Am G           F C Am G
      (Together we go [echo])


[CHORUS]
 F       Am C G
 We get colder,
    F        Am C G
 As we grow older.
 F        Am C G
 We will walk
 F        Am C G
 So much slower.


[OUTRO]
F Am C G F Am C G F Am C G

|----------0-3-0-----------------0-3--------0------------------|
|-1------3-------3-1-5-3-1---1-3---------1-3-3-----------------|
|--------------------------2------------0----------------------|
|--------------------------------------------------------------|
|--------------------------------------------------------------|
|--------------------------------------------------------------|
Suggest correction
Creating personal tab
Creating personal tab
You can edit any tab online and save it as your Personal.

You can edit, replace or remove any tab part or add personal notes – all changes will be seen only by you.

Personal tabs can be accessed anytime from any device, even offline.
Learn more »
comments
print report bad tab
7 comments total. Showing first comments.
+8 reply
btBatt 10 Mar 24, 2015 12:35 PM, edited at 04:37 pm

|----------0-3-0-----------------------------0-3---------------|
|-1------3---------5-3-5---3---1------1--3---------1--3--5--3--|
|---------------------------------2----------------------------|
|--------------------------------------------------------------|
|--------------------------------------------------------------|
|--------------------------------------------------------------|

+2 reply
klevergirl 10 Dec 20, 2015 11:02 AM

I believe the first F's in the verses should be Dm's

+1 reply
harumarui 10 Feb 27, 2016 08:46 AM

i play a ukulele as well and these are the chords that are used in the song (or at least the version that i know)

guest
Wanna post a correction for this tab? Suggest correction