Oops, an error
Loading. Please wait.

Polarize bass

version 1
version 1

Whole song

  • This is the tab for the entire song rather than just the solo.
3,709 views 66 this week
1 commentread comment
1 2 3 4 5
x 13
add to favorites
×
Save as Personal and add changes to this tab that will be seen only by you. Learn more ›
×
You can save this tab as Personal to edit and correct it or add notes. All changes will be seen only by you. Learn more »
launch autoscroll
font size
0
reset
guitar tuner
edit
Autoscroll
slow
fast
+/-
esc
set tempo
stop
About this tab version
This is the tab for the entire song rather than just the solo.
[Intro 0:14]
G|-------------------------------------------|
D|----------4~~~~-------9~~~7~~~-------------|
A|-5~~~~~~~~---------------------7~~~7/14----|
D|-------------------------------------------|


[Verse 0:38]
G|---------------------------------|
D|---------4-4-4-4-9-9-7-7-----7-7-|
A|-5~~~5-5-----------------7-7-----|
D|---------------------------------|

G|---------------------------------|
D|---------4-4-4-4-9-9-7-7---------|
A|-5-5-5-5-----------------7-7-----|
D|---------------------------------|


[Chorus 0:50]
G|----------------------------------------|
D|----------4~~~~-------9~~~7~~~-----7~~~-|
A|-5~~~~~~~~---------------------7~~~-----|
D|----------------------------------------| X2


[Verse 1:17]
G|---------------------------------|
D|---------4-4-4-4-9-9-7-7-----7-7-|
A|-5~~~5-5-----------------7-7-----|
D|---------------------------------|

G|---------------------------------|
D|---------4-4-4-4-9-9-7-7---------|
A|-5-5-5-5-----------------7-7-----|
D|---------------------------------|


[Chorus 1:28]
G|----------------------------------------|
D|----------4~~~~-------9~~~7~~~-----7~~~-|
A|-5~~~~~~~~---------------------7~~~-----|
D|----------------------------------------| X2


[Bridge 1:42]
G|----------------------------------------|
D|----------4~~~~-------9~~~7~~~-----7~~~-|
A|-5~~~~~~~~---------------------7~~~-----|
D|----------------------------------------| X2

[Solo 1:55]
G|---------------------------------------------|
D|---------------------------------------------|
A|---------------------------------------------|
D|-2-2/4--4-4---2/9-9---9-2-22-2-2---2/7-7-6---| X6


[Outro 2:40]

G|-----------|
D|-----4-----|
A|------4----|
D|-7\2---4---|

G|---------------------------------------------|
D|---------------------------------------------|
A|---------------------------------------------|
D|-2-2/4--4-4---2/9-9---9-2-22-2-2---2/7-7-6---| X2

G|---------------------------------------|
D|---------------------------------------|
A|--5-55-5-5---5-------------------------|
D|--------------4-4----9~~~7~~~2~~~7~~~--| X4


************************************

| /   Slide up
| \   Slide down

************************************

            
            
Suggest correction
Creating personal tab
Creating personal tab
You can edit any tab online and save it as your Personal.

You can edit, replace or remove any tab part or add personal notes – all changes will be seen only by you.

Personal tabs can be accessed anytime from any device, even offline.
Learn more »
comments
print report bad tab
1 comment total.
+1 reply
tylergrove1 12 May 03, 2017 10:38 AM

I feel like it's unnecessary to drop the E string. The lowest note (that I saw) is that E

guest
You may want to rate the tab now too:
select rating
Wanna post a correction for this tab? Suggest correction