Oops, an error
Loading. Please wait.

Polarize Bass Tab

version 1
version 1

Live

Whole song

  • This is the tab for the entire song rather than just the solo.
49 views 6 this week
1 commentread comment
1 2 3 4 5
2 more votes to show rating
add to favorites
launch autoscroll
font size
0
reset
guitar tuner
Autoscroll
slow
fast
+/-
esc
set tempo
stop
Help us to improve Ultimate-Guitar.com Take our survey!
×
Author
Difficulty
novice
It's kinda hard to hear what Tyler plays live in the intro of this song but I tried my best
This tab is based off the Lollapalooza Argentina 2016 video
https://www.youtube.com/watch?v=mXuazLcS__k

[Intro] 2x

(Josh starts on drums)

G|-----7---/-11-11--11----11---14---/-9--9-----9---|
D|-----9---/-12-12--12----12---16---/-11-11---11---|
A|-------------------------------------------------|
E|-------------------------------------------------|
    Help me polarize...      ..my friends and I..

(this is where the song kicks in)
G|--------------------------------------|
D|--------------------------------------|
A|----5------------0---7//--------------|
E|--------2----7------------------------|

[Verse]
(nothing for first half)
You know where I'm coming from though I am running to you, all I feel is tonight, tonight, tonight oh

(played on off beat)
G|---------------------------------------------------------|
D|---------------------------------------------------------|
A|----5--5---------2--0--7-(11)---5--5--------2--0--7------|
E|-----------2--2-----------------------2--2---------------|
Wanted to be a better....

[Chorus]
G|----------------------------|
D|----------------------------|
A|---5--------2--0--7---(11)--|
E|-------2--------------------|

[Same verse thing]
[Same chorus, but twice as long]

[Break down]
G|---------------------------------|
D|---------------------------------|
A|---------------------------------|
E|--2--2-2---/7-7---0--0-0---5-4---|
Domingo en feugo....

[Final chorus]
G|---------------------------------| 
D|---------------------------------|  2x
A|---------------------------------|
E|--2--2-2---/7-7---0--0-0---5-4---|

G|----------------------------|
D|----------------------------| 4x
A|---5--------2--0--7---(11)--|
E|-------2--------------------|

[Outro]
G|-----7--/11-----9--/11----------------7--/11---7--/11------6---|
D|-----9--/12-----7--/12----------------9--/12---9--/12------7---|
A|---------------------------------------------------------------|
E|---------------------------------------------------------------|
                  wanted to be a better...

*******************************************************
h = Hammer On
p = Pull Off
/ = Slide
*******************************************************
Suggest correction
Give kudos to tab author, rate the tab!
1 2 3 4 5
comments
print report bad tab
1 comment total.
0 reply
Iamaguy 201 5 days ago

not the best i have a better version

guest
You may want to rate the tab now too:
select rating
Wanna post a correction for this tab? Suggest correction