Oops, an error
Loading. Please wait.
We have an official Ride tab made by UG professional guitarists. Check out the tab »
×

Ride Bass

version 3
version 3

Whole song

  • All of the others are off one each time. This tab ... Show more
  • This is the tab used in the bass cover by Alto Fox... Show more

Interactive

1,150 views 30 this week
1 commentread comment
1 2 3 4 5
1 last vote to show rating
add to favorites
launch autoscroll
font size
0
reset
guitar tuner
×
Best way to learn
"Ride"
Autoscroll
slow
fast
+/-
esc
set tempo
stop
About this tab version
All of the others are off one each time. This tab has been tested and is accurate with the song. Was this info helpful? Yes No
"Ride" twenty one pilots
Tabbed By: Guitar Player21 
Tuning: Drop D


Hey guys. I saw the other bass tabs on here were just a tad off so I made my own. Enjoy!

Verse 1
G|---------------------------------------------------------------------------|
D|---------------------------------------------------------------------------|
A|-----------------------3----------------------------3----------------------|
D|--5-------7--2------------5----------7--2--------------5-------------------|

Chorus
G|---------------------------------------------------------------------------|
D|--5--------5------------------------5-------------4------------------------|
A|--------------5---------7--5-------------5---------------------------------|
D|---------------------------------------------------------------------------|
                                          
G|---------------------------------------------------------------------------|
D|---------------------------------------------------------------------------|
A|------------------------------3-3------------------------------------------|
D|--5-5-5-5-5-5-7-7-2-2-2-2-2-2-----5-5-5-5-5-5-7-7-2------------------------|

Verse 2
G|---------------------------------------------------------------------------|
D|---------------------------------------------------------------------------|
A|-----------------------3----------------------------3----------------------|
D|--5-------7--2------------5----------7--2----------------------------------|

G|---------------------------------------------------------------------------|
D|---------------------------------------------------------------------------|
A|-------------------------3---------------------------3---------------------|
D|--5-5-5----7----2-2-2---------5-5-5----7----2-2-2--------------------------|

Chorus
G|---------------------------------------------------------------------------|
D|--5--------5------------------------5-------------4------------------------|
A|--------------5---------7--5-------------5---------------------------------|
D|---------------------------------------------------------------------------|
                                          
G|---------------------------------------------------------------------------|
D|---------------------------------------------------------------------------|
A|------------------------------3-3------------------------------------------|
D|--5-5-5-5-5-5-7-7-2-2-2-2-2-2-----5-5-5-5-5-5-7-7-2------------------------|

Bridge
G|---------------------------------------------------------------------------|
D|---------------------------------------------------------------------------|
A|-----------------------3----------------------------3----------------------|
D|--5-------7--2------------5----------7--2----------------------------------|

Chorus
G|---------------------------------------------------------------------------|
D|--5--------5------------------------5-------------4------------------------|
A|--------------5---------7--5-------------5---------------------------------|
D|---------------------------------------------------------------------------|
                                          
G|---------------------------------------------------------------------------|
D|---------------------------------------------------------------------------|
A|------------------------------3-3------------------------------------------|
D|--5-5-5-5-5-5-7-7-2-2-2-2-2-2-----5-5-5-5-5-5-7-7-2------------------------|

Outro
G|---------------------------------------------------------------------------|
D|---------------------------------------------------------------------------|
A|--------------------------3------------------------------3-----------------|
D|--5----------7--2------------5------------7--2-----------------------------|

Thanks! |-/
Suggest correction
Give kudos to tab author, rate the tab!
1 2 3 4 5
comments
print report bad tab
1 comment total.
0 reply
rocker12134 10 Sep 17, 2016 06:35 PM

Great tab again!

guest
You may want to rate the tab now too:
select rating
Wanna post a correction for this tab? Suggest correction