Oops, an error
Loading. Please wait.

Ride Tab

version 3
version 3

Whole song

Interactive

Video

595 views 45 this week
no commentswrite comment
1 2 3 4 5
1 last vote to show rating
add to favorites
launch autoscroll
font size
0
reset
how to read this tab
guitar tuner
Autoscroll
slow
fast
+/-
esc
set tempo
stop
Help us to improve Ultimate-Guitar.com Take our survey!
×
Author
Difficulty
About this tab version
I have simplified the melody. Was this info helpful? Yes No
Ride - twentyonepilots
~~~~~~~~~~~~~~~~~~~~~~~~~~~~~~~~~~~~~~~~~~~~~~~~~~~~~~~~~~~~~~~~~~~~~~~~~~~~~~~~~~~~
melody of Ride, very simple version




     I...    just    wan-na   stay  in  the   sun    where   I   find
e|---------------------------------------------------------------------------------|
B|----------------------------------------------3------------3---------------------|
G|---2/4------4-------4---4----4----4----4-------------4-----------4---------------|
D|---------------------------------------------------------------------------------|
A|---------------------------------------------------------------------------------|
E|---------------------------------------------------------------------------------|

    I...  know    its   hard     some- ti- mes
e|--1/3----3------2------2--------0----0-------------------------------------------|
B|------------------------------------------3--------------------------------------|
G|---------------------------------------------------------------------------------|
D|---------------------------------------------------------------------------------|
A|---------------------------------------------------------------------------------|
E|---------------------------------------------------------------------------------|

    piece-   -es     of  piece in   the suns   piece   of   mind
e|---------------------------------------------------------------------------------|
B|---------------------------------------3-------------3---------------------------|
G|---2/4------4-------4---4----4----4-----------4------------4---------------------|
D|---------------------------------------------------------------------------------|
A|---------------------------------------------------------------------------------|
E|---------------------------------------------------------------------------------|

    I...  know    its   hard     some- ti- mes
e|--1/3----3------2------2--------0----0-------------------------------------------|
B|------------------------------------------3--------------------------------------|
G|---------------------------------------------------------------------------------|
D|---------------------------------------------------------------------------------|
A|---------------------------------------------------------------------------------|
E|---------------------------------------------------------------------------------|

     ya       I     think a - bout the  end    just   way   to   much
e|---------------------------------------------------------------------------------|
B|----------------------------------------------3------------3---------------------|
G|---2/4------4-------4---4----4----4----4-------------4----------4----------------|
D|---------------------------------------------------------------------------------|
A|---------------------------------------------------------------------------------|
E|---------------------------------------------------------------------------------|

    but   its    fun   to    fan - ti - si- ze
e|--1/3----3------3------2----2-----0----0-----------------------------------------|
B|------------------------------------------3--------------------------------------|
G|---------------------------------------------------------------------------------|
D|---------------------------------------------------------------------------------|
A|---------------------------------------------------------------------------------|
E|---------------------------------------------------------------------------------|

     all     my      en   e   mies who  would-nt   wish  who   I    was
e|---------------------------------------------------------------------------------|
B|---------------------------------------------------3---------3-------------------|
G|---2/4------4-------4---4----4----4----4-----4----------4----------4-------------|
D|---------------------------------------------------------------------------------|
A|---------------------------------------------------------------------------------|
E|---------------------------------------------------------------------------------|


    but   its    fun   to    fan - ti - si-  ze
e|--1/3----3------3------2----2-----0----0----5------------------------------------|
B|---------------------------------------------------------------------------------|
G|---------------------------------------------------------------------------------|
D|---------------------------------------------------------------------------------|
A|---------------------------------------------------------------------------------|
E|---------------------------------------------------------------------------------|

[Chorus}

     oh   oh   oh    oh   oh    oh    oh   oh  oh   oh   oh  ive fallen  so
e|-----------------------------------------0--------0---------3--2--0--------------|
B|---0----3----0-----3----0-----3-----3---------3--------3----------------0--------|
G|---------------------------------------------------------------------------------|
D|---------------------------------------------------------------------------------|
A|---------------------------------------------------------------------------------|
E|---------------------------------------------------------------------------------|
    im  tak- in    my  time  on   my   ri    ee   i    ee   i   ide
e|---------------------------------------------------------------------------------|
B|--3----0----3----1----0----3-----1----0----3----0----3----0----3-----------------|
G|---------------------------------------------------------------------------------|
D|---------------------------------------------------------------------------------|
A|---------------------------------------------------------------------------------|
E|---------------------------------------------------------------------------------|

     oh   oh  oh    oh   oh  ive fal-len   so    im   tak-   in   my   time
e|--------0---------0---------3---2---0--------------------------------------|
B|---3--------3----------3------------------0-----3----0-----3-----1----0----|
G|---------------------------------------------------------------------------|
D|---------------------------------------------------------------------------|
A|---------------------------------------------------------------------------|
E|---------------------------------------------------------------------------|

     on   my    riiiiiiiiiiiiiiiide   tak- in    my   time  on    my 
                Em    Em    C     G    
e|--------------0-----0-----0-----3------------------------------------------------|
B|---3----1-----0-----0-----1-----0----0----3----1-----0-----3----1----------------|
G|--------------0-----0-----0-----0------------------------------------------------|
D|--------------2-----2-----2-----0------------------------------------------------|
A|--------------2-----2-----3-----2------------------------------------------------|
E|--------------0-----0-----0-----3------------------------------------------------|

                Riiiiiiiiiiiiiiiide
e|--------------0-----0-----0-----3------------------------------------------------|
B|--------------0-----0-----1-----0------------------------------------------------|
G|--------------0-----0-----0-----0------------------------------------------------|
D|--------------2-----2-----2-----0------------------------------------------------|
A|--------------2-----2-----3-----2------------------------------------------------|
E|--------------0-----0-----0-----3------------------------------------------------|


[Verse 2]

     I'd     die   for you thats easy to  say  we  havealistofpeoplethatwewouldtake
e|---------------------------------------------------------------------------------|
B|----------------------3------------------3-------------------------------------3-|
G|---2/4------4-----4------4-----4----4---------4---4--4--4--4--4--4--4--4--4-4----|
D|---------------------------------------------------------------------------------|
A|---------------------------------------------------------------------------------|
E|---------------------------------------------------------------------------------|

     a      bull-et for them a   bull-et   for you  abulletforeverybodyinthis  room
e|---------------------------------------------------------------------------------|
B|-----------------------3----------------------3--------------------------------3-|
G|---2/4-----4---4---4-------4----4----4----4-------4--4--4--4--4--4--4--4--4-4----|
D|---------------------------------------------------------------------------------|
A|---------------------------------------------------------------------------------|
E|---------------------------------------------------------------------------------|

    but     I    dont  seem   to   see    ma-    ny    bull  -ets   com -ing through 
e|---------------------------------------------------------------------------------|
B|---------------------------------------------------------------------------------|
G|---4-----4------4-----4-----4-----4-----4------4------2------4-----2-----4----2--|
D|---------------------------------------------------------------------------------|
A|---------------------------------------------------------------------------------|
E|---------------------------------------------------------------------------------|

      see   ma-    ny     bull-   ets  com-  ing  through
e|---------------------------------------------------------------------------------|
B|---------------------------------------------------------------------------------|
G|-----4-----4------4------2------4-----2-----4------2-----------------------------|
D|---------------------------------------------------------------------------------|
A|---------------------------------------------------------------------------------|
E|---------------------------------------------------------------------------------|

     met    i    phor   i    cly    im   the    man    but    
e|---------------------------------------------------------------------------------|
B|---------------------------------------------------------------------------------|
G|---2/4----4-----4-----4-----4-----4-----2------2------0--------------------------|
D|---------------------------------------------------------------------------------|
A|---------------------------------------------------------------------------------|
E|---------------------------------------------------------------------------------|

    lit     ter     all   ly    I    dont  know   that   tho
e|---------------------------------------------------------------------------------|
B|---------------------------------------------------------------------------------|
G|---2/4-----4------4-----4-----4-----4-----4------0------0------------------------|
D|---------------------------------------------------------------------------------|
A|---------------------------------------------------------------------------------|
E|---------------------------------------------------------------------------------|
Suggest correction
Give kudos to tab author, rate the tab!
1 2 3 4 5
comments
print report bad tab
guest
You may want to rate the tab now too:
select rating
Wanna post a correction for this tab? Suggest correction