Oops, an error
Loading. Please wait.

Ride Bass

version 4
version 4

Whole song

  • All of the others are off one each time. This tab ... Show more
  • This is the tab used in the bass cover by Alto Fox... Show more

Interactive

769 views 18 this week
no commentswrite comment
1 2 3 4 5
x 5
add to favorites
launch autoscroll
font size
0
reset
guitar tuner
×
Best way to learn
"Ride"
Autoscroll
slow
fast
+/-
esc
set tempo
stop
Difficulty
Tuning
novice
E A D G
About this tab version
This is the tab used in the bass cover by Alto Fox on YouTube. The tabs are taken from the ones shown in the video. All credit to Alto Fox. Was this info helpful? Yes No
[Intro]

No bass

[Verse 1]

G|-----------------------------------|
D|-----------------------------------|
A|---------6------2----------6----4--|  X2
E|-2----4------------2----4----------|

[Chorus]

G|-----------------------------------|
D|-----------------------------------|
A|---------6------2----------6----4--|
E|-2----4------------2----4----------|

[Verse 2]

G|-----------------------------------|
D|-----------------------------------|
A|---------6------2----------6----4--|
E|-2----4------------2----4----------|

G|---------------------------------------------|
D|---------------------------------------------|
A|------------6-6-6----2------------6-6-6---4--|
E|-2-2-2---4-------------2-2-2---4-------------|

[Chorus]

G|-----------------------------------|
D|-----------------------------------|
A|---------6------2----------6----4--|
E|-2----4------------2----4----------|

[Bridge]

G|-----------------------------------|
D|-----------------------------------|
A|---------4----6--------6--4--------|
E|-2----4----------4--------------1--|

[Chorus]

G|--------------------------------------------------------|
D|--------------------------------------------------------|
A|-------------------6-6-6-6-6-6-2-2-----------------6----|
E|-2-2-2-2-2-2-2-4-4-----------------2-2-2-2-2-2-4-4------|

G|-----------------------------------|
D|-----------------------------------|
A|---------6------2----------6----4--|   X2
E|-2----4------------2----4----------|


[Outro]

G|----------------------------------|
D|----------------------------------|
A|---------4----6-------6--4---8-9--|
E|-2----4----------4----------------|
Suggest correction
comments
print report bad tab
guest
You may want to rate the tab now too:
select rating
Wanna post a correction for this tab? Suggest correction