Oops, an error
Loading. Please wait.

Ruby Bass

661 views 6 this week
1 commentread comment
1 2 3 4 5
x 4
add to favorites
launch autoscroll
font size
0
reset
guitar tuner
Autoscroll
slow
fast
+/-
esc
set tempo
stop
Difficulty
intermediate
G ---------------------------------
D --------7------------------------  
A 3----------------7-------7-------
E ---------------------------------
0:23 (2x)

(verses are tacet)

G ---------------------------------
D ---------7-----------------------
A 3-----------------7-------7------
E ---------------------------------
0:57 (2x)

G -----------------------------
D ----------------------------- 
A 3--3-3-0--0-0----------------
E ---------------3--3-3-0--0-0- (4x)
chorus:
You're an angel fallen down, 
Won't you tell us of the clouds
You have fallen from the sky; 
How high? How high? (x2)

G ----------------
D ---------------- (1x)
A 3---0-----------
E --------3-------
2:59

G ----------------
D ---------------- (7x)
A 3---0-----------
E --------3---0---
3:05
Tell our dad I'm sorry. (6x)

G ----------------------------
D ----------------------------
A 3--3-3-0--0-0---------------
E --------------3--3-3-0--0-0-   (8x)
You're an angel. (5x)
Tell our dad i'm sorry. (3x)
Suggest correction
comments
print report bad tab
1 comment total.
0 reply
Iamaguy 222 Nov 28, 2016 02:27 PM

cunfusing but ok

guest
You may want to rate the tab now too:
select rating
Wanna post a correction for this tab? Suggest correction