Oops, an error
Loading. Please wait.

Slowtown Bass Tab

version 1
version 1

Whole song

  • There's one other bass tab for this song and it's ... Show more

Interactive

226 views 12 this week
1 commentread comment
1 2 3 4 5
3 more votes to show rating
add to favorites
launch autoscroll
font size
0
reset
guitar tuner
Autoscroll
slow
fast
+/-
esc
set tempo
stop
Help us to improve Ultimate-Guitar.com Take our survey!
×
Author
Difficulty
novice
This is my 5th tab and Its slowtown!

Nobody has tabbed this song but I will!

hope you enjoy!

Tuning: standard


bass starts at chorus


Chorus x2 1:05
G|------------------------------------------------------------------|
D|------------------------------------------------------------------|
A|------------------------------------------------------------------|
E|--7-7-7-7-7-7-7-7-5-5-5-5-5-5-5-5-3-3-3-3-3-3-3-3-3-3-3-3-3-3-3-3-|

G|-------------------------------------------------------|
D|-------------------------------------------------------|
A|-------------------------------------------------------|
E|--9-9-9-9-9-9-9-9-7-7-7-7-7-7-7-7-5-5-5-5-5-5-5-5-5/12-|

Post chorus

G|-------------------------------------------------|
D|-------------------------------------------------|
A|-------------------------------------------------|
E|--7-7-7-5-5-5-3-3-3-3-3-3/9-9-9-7-7-7-5-5-5------|

Bridge 1:59

G|--------------|
D|--------------|
A|--------------|
E|-5~-3~--7h9p7-|

Chorus x4 2:25

G|------------------------------------------------------------------|
D|------------------------------------------------------------------|
A|------------------------------------------------------------------|
E|--7-7-7-7-7-7-7-7-5-5-5-5-5-5-5-5-3-3-3-3-3-3-3-3-3-3-3-3-3-3-3-3-|

G|-------------------------------------------------------|
D|-------------------------------------------------------|
A|-------------------------------------------------------|
E|--9-9-9-9-9-9-9-9-7-7-7-7-7-7-7-7-5-5-5-5-5-5-5-5-5/12-|

Post chorus

G|-------------------------------------------------|
D|-------------------------------------------------|
A|-------------------------------------------------|
E|--7-7-7-5-5-5-3-3-3-3-3-3/9-9-9-7-7-7-5-5-5------|

Bridge

G|----------------------------------|
D|----------------------------------|
A|----------------------------------| x3
E|-9-7-5-5--------------------------|

G|----------------------------------|
D|----------------------------------|
A|----------------------------------| 
E|9-7-5-5-3-------------------------|

G|----------------------------------|
D|----------------------------------|
A|----------------------------------| 
E|-0-0-0-0-0-0-0-0------------------|

G|----------------------------------|
D|----------------------------------|
A|---------------0-0-0--------------| x3
E|-9-7-5-5--------------------------|

G|----------------------------------|
D|----------------------------------|
A|----------------------------------| 
E|9-7-5-5-3-------------------------|

Breakdown 3:45

G|----------------------------------|
D|----------------------------------|
A|----------------------------------| 
E|-0-0-0-0-0-0-0-0------------------|

G|----------------------------------|
D|----------------------------------|
A|---------------0-0-0--------------| x3
E|-9-7-5-5--------------------------|

G|----------------------------------|
D|----------------------------------|
A|----------------------------------| 
E|9-7-5-5-3-------------------------|

Rest



well that is the biggest tab I have ever made!

Hope you enjoyed!


If there are mistakes comment!
Suggest correction
Give kudos to tab author, rate the tab!
1 2 3 4 5
comments
print report bad tab
1 comment total.
0 reply
bydesign68 99 Oct 14, 2016 04:25 PM

This doesn't sound right at all, I don't know what's wrong but I don't think the notes are correct. Did you post the correct tuning?

guest
You may want to rate the tab now too:
select rating
Wanna post a correction for this tab? Suggest correction