Oops, an error
Loading. Please wait.

Slowtown Bass Tab

version 2
version 2

Whole song

  • There's one other bass tab for this song and it's ... Show more

Interactive

133 views 21 this week
1 commentread comment
1 2 3 4 5
3 more votes to show rating
add to favorites
launch autoscroll
font size
0
reset
guitar tuner
Autoscroll
slow
fast
+/-
esc
set tempo
stop
Help us to improve Ultimate-Guitar.com Take our survey!
×
Author
Difficulty
Tuning
intermediate
D A D G B E
About this tab version
There's one other bass tab for this song and it's just simpler than this one. I wanted to put out a more advanced tab that was a bit more accurate to what is played in the song. Was this info helpful? Yes No
This tab includes the notes played in the song. There's another tab for this song, but it's different
from what is actually played on the track. The intro, first verse, and outro have no bass in it so you
have to wait until about 1:05 in the song to hear the bass. Enjoy!





[Intro]

G|------------------------------------------------------------------------------|
D|------------------------------------------------------------------------------|
A|------------------------------------------------------------------------------|
D|------------------------------------------------------------------------------|

[Verse 1]

G|------------------------------------------------------------------------------|
D|------------------------------------------------------------------------------|
A|------------------------------------------------------------------------------|
D|------------------------------------------------------------------------------|

[Chorus pt. 1]

"...and I walk through my door"

G|--0-0-0-0-0-0-0-0-------------------------------------------------------------|
D|------------------------------------2-2-2-2-2-2-2-2--2-0-2-2-2-2-2-2----------|
A|-------------------0-0-0-0-0-0-0-0--------------------------------------------|
D|------------------------------------------------------------------------------|

G|--0-0-0-0-0-0-0-0-------------------------------------------------------------|
D|------------------------------------2-2-2-2-2-2-2-2--2-0-2-2------------------|
A|-------------------0-0-0-0-0-0-0-0--------------------------------------------|
D|------------------------------------------------------------------------------|

[Chorus pt. 2]]

G|------------------------------------------------------------------------------|
D|------------------------------------------------------------------------------|
A|-------------------0-0-0-0-0-0-0-0--------------------------------------------| (x2)
D|--5-5-5-5-5-5-5-5-------------------2-2-2-2-2-2-2-2--2-0-2-2-2-2-2-2----------|

G|------------------------------------------------------------------------------|
D|------------------------------------------------------------------------------|
A|-------------0--0-0--0--------------------------------------------------------| (x2)
D|--5--5-5--5-------------2--2-2--2--2-0-2-2-2-2-2-2----------------------------|

[Post-Chorus]

G|--------2---------------------------------------------------------------------|
D|--0--4------------------------------------------------------------------------|
A|------------------------------------------------------------------------------|
D|------------------------------------------------------------------------------| 

[Verse 2]     (the notes kind of swing with the rhythm, listen close)

"I remember..."

G|--------------------------------------------------------------------------------|
D|--------------------------------------------------------------------------------|
A|------------------3--2-3--------------------------3--3-3--3---3/7---------------|
D|--5---5-5--5---5----------2---2-2--2--2---0--2-0-------------------2---2-2--2---|

G|-----------------------------------------------------------------------------------------|
D|-----------------------------------------------------------------------------------------|
A|--------------------3--2-3--------------------------3--3-3--3---3/7----------------------|
D|--4/5---5-5--5---5----------2---2-2--2--2---0--2-0-------------------2---2-2--2--2--0----|

[Chorus pt. 1]

"I put my socks on my feet"

G|--0----------0----------------------------------------------------------------|
D|--------2----------2----------------------------------------------------------|
A|-----0----------0-------------------------------------------------------------|
D|------------------------------------------------------------------------------|

G|--0-0-0-0-0-0-0-0-------------------------------------------------------------|
D|------------------------------------2-2-2-2-2-2-2-2--2-0-2-2-2-2-2-2----------|
A|-------------------0-0-0-0-0-0-0-0--------------------------------------------|
D|------------------------------------------------------------------------------|

G|--0-0-0-0-0-0-0-0-------------------------------------------------------------|
D|------------------------------------2-2-2-2-2-2-2-2--2-0-2-2------------------|
A|-------------------0-0-0-0-0-0-0-0--------------------------------------------|
D|------------------------------------------------------------------------------|

[Chorus pt. 2]

G|------------------------------------------------------------------------------|
D|------------------------------------------------------------------------------|
A|-------------------0-0-0-0-0-0-0-0--------------------------------------------| (x2)
D|--5-5-5-5-5-5-5-5-------------------2-2-2-2-2-2-2-2--2-0-2-2-2-2-2-2----------|

G|------------------------------------------------------------------------------|
D|------------------------------------------------------------------------------|
A|-------------0--0-0--0--------------------------------------------------------| (x2)
D|--5--5-5--5-------------2--2-2--2--2-0-2-2-2-2-2-2----------------------------|

[Bridge]
(3:44 when the music gets really loud)

G|------------------------------------------------------------------------------|
D|------------------------------------------------------------------------------|
A|-------------0--0-0--0--------------------------------------------------------|
D|--5--5-5--5-------------2--2-2--2--2-0-2-2-2-2-2-2----------------------------|

G|------------------------------------------------------------------------------|
D|------------------------2--2-2--2--2-0-2-2-2-2-2-2----------------------------|
A|-------------0--0-0--0--------------------------------------------------------|
D|--5--5-5--5-------------------------------------------------------------------|


[Outro]

G|------------------------------------------------------------------------------|
D|------------------------------------------------------------------------------|
A|------------------------------------------------------------------------------|
D|------------------------------------------------------------------------------|





***********************************
| /   Slide up
***********************************


Suggest correction
Give kudos to tab author, rate the tab!
1 2 3 4 5
comments
print report bad tab
1 comment total.
0 reply
Iamaguy 201 Oct 23, 2016 11:15 PM

good job but I think my tab is more accurate

guest
You may want to rate the tab now too:
select rating
Wanna post a correction for this tab? Suggest correction