Oops, an error
Loading. Please wait.

Stressed Out tab

version 2
version 2

Whole song

  • This tab is based of bass tab (my first tab so it may contain some mistakes).

Interactive

Video

1,633 views 45 this week
no commentswrite comment
1 2 3 4 5
x 3
add to favorites
×
Save as Personal and add changes to this tab that will be seen only by you. Learn more ›
×
You can save this tab as Personal to edit and correct it or add notes. All changes will be seen only by you. Learn more »
launch autoscroll
font size
0
reset
how to read this tab
guitar tuner
edit
Autoscroll
slow
fast
+/-
esc
set tempo
stop
About this tab version
This tab is based of bass tab (my first tab so it may contain some mistakes). Was this info helpful? Yes No
[Intro]

e|----------------------------------------------------|
B|----------------------------------------------------|
G|----------------------------------------------------|
D|-2/3---3p0---0h7---0h7------------------------------|
A|-2/3---3p0---0h7---0h7------------------------------|
D|-2/3---3p0---0h7---0h7------------------------------|

[Verse]

e|----------------------------------------------------|
B|----------------------------------------------------|
G|----------------------------------------------------|
D|-2/3---3p0---0h7---0h7------------------------------|
A|-2/3---3p0---0h7---0h7------------------------------|
D|-2/3---3p0---0h7---0h7------------------------------|

[Pre-Chorus]

e|----------------------------------------------------|
B|----------------------------------------------------|
G|----------------------------------------------------|
D|----------------------------------------------------|
A|----------------------------------------------------|
D|-------------------------------------------------7~-|

  Wish we could turn back time, to the good ol' days                                       

e|----------------------------------------------------|
B|----------------------------------------------------|
G|----------------------------------------------------|
D|----------------------------------------------------|
A|--------------------3~------------------------------|
D|----------5~------------------------2---------------|

  when our momma sang us to sleep but now we're stressed out

[Chorus]

e|----------------------------------------------------|
B|----------------------------------------------------|
G|----------------------5-5-5-5-----------------------|
D|--7-7-7-7---5-5-5-5---5-5-5-5---2-2-2-2-------------|
A|--7-7-7-7---5-5-5-5---3-3-3-3---2-2-2-2-------------|
D|--7-7-7-7---5-5-5-5-------------2-2-2-2-------------|


[Post-Chorus]

e|----------------------------------------------------|
B|----------------------------------------------------|
G|----------------------------------------------------|
D|-2/3---3p0---0h7---0h7------------------------------|
A|-2/3---3p0---0h7---0h7------------------------------|
D|-2/3---3p0---0h7---0h7------------------------------|

[Verse 2]

e|----------------------------------------------------|
B|----------------------------------------------------|
G|---------7---5--------------------------------------|
D|-7---5---7---5--------------------------------------|
A|-7---5---5---3--------------------------------------|
D|-7---5----------------------------------------------|

e|----------------------------------------------------|
B|----------------------------------------------------|
G|----------------------------------------------------|
D|-2/3---3p0---0h7---0h7------------------------------|
A|-2/3---3p0---0h7---0h7------------------------------|
D|-2/3---3p0---0h7---0h7------------------------------|

  But it would...


[Pre-Chorus]

e|----------------------------------------------------|
B|----------------------------------------------------|
G|----------------------------------------------------|
D|----------------------------------------------------|
A|----------------------------------------------------|
D|-------------------------------------------------7~-|

  Wish we could turn back time, to the good ol' days                                       

e|----------------------------------------------------|
B|----------------------------------------------------|
G|----------------------------------------------------|
D|----------------------------------------------------|
A|--------------------3~------------------------------|
D|----------5~------------------------2---------------|

  when our momma sang us to sleep but now we're stressed out

[Chorus]

e|----------------------------------------------------|
B|----------------------------------------------------|
G|----------------------5-5-5-5-----------------------|
D|--7-7-7-7---5-5-5-5---5-5-5-5---2-2-2-2-------------|
A|--7-7-7-7---5-5-5-5---3-3-3-3---2-2-2-2-------------|
D|--7-7-7-7---5-5-5-5-------------2-2-2-2-------------|

[Bridge]

e|----------------------------------------------------|
B|----------------------------------------------------|
G|----------------------5-5-5-5-----------------------|
D|--7-7-7-7---5-5-5-5---5-5-5-5---2-2-2-2-------------|
A|--7-7-7-7---5-5-5-5---3-3-3-3---2-2-2-2-------------|
D|--7-7-7-7---5-5-5-5-------------2-2-2-2-------------|

  (when he starts singing "we used to play pretend" part the second time)


[Pre-Chorus]

e|----------------------------------------------------|
B|----------------------------------------------------|
G|----------------------------------------------------|
D|----------------------------------------------------|
A|----------------------------------------------------|
D|-------------------------------------------------7~-|

  Wish we could turn back time, to the good ol' days                                       

e|----------------------------------------------------|
B|----------------------------------------------------|
G|----------------------------------------------------|
D|----------------------------------------------------|
A|--------------------3~------------------------------|
D|----------5~------------------------2---------------|

  when our momma sang us to sleep but now we're stressed out

[Chorus]

e|----------------------------------------------------|
B|----------------------------------------------------|
G|----------------------5-5-5-5-----------------------|
D|--7-7-7-7---5-5-5-5---5-5-5-5---2-2-2-2-------------|
A|--7-7-7-7---5-5-5-5---3-3-3-3---2-2-2-2-------------|
D|--7-7-7-7---5-5-5-5-------------2-2-2-2-------------|

[Outro]

e|----------------------------------------------------|
B|----------------------------------------------------|
G|----------------------------------------------------|
D|-2/3---3p0---0h7---0h7------------------------------|
A|-2/3---3p0---0h7---0h7------------------------------|
D|-2/3---3p0---0h7---0h7------------------------------|

 
************************************

| h   Hammer-on
| p   Pull-off
| /   Slide up
| \   Slide down
| ~   Let Ring

************************************

            
            
Suggest correction
Creating personal tab
Creating personal tab
You can edit any tab online and save it as your Personal.

You can edit, replace or remove any tab part or add personal notes – all changes will be seen only by you.

Personal tabs can be accessed anytime from any device, even offline.
Learn more »
Give kudos to tab author, rate the tab!
1 2 3 4 5
comments
print report bad tab
guest
You may want to rate the tab now too:
select rating
Wanna post a correction for this tab? Suggest correction