Oops, an error
Loading. Please wait.
We have an official Stressed Out tab made by UG professional guitarists. Check out the tab »
×

Stressed Out bass

version 4
version 4

Whole song

  • I don't use ~ to mean vibrato, i use it to mean sustained notes.
  • This is Alto Fox's tab which he used in his youtub... Show more

Interactive

1,226 views 3 this week
3 commentsread comments
1 2 3 4 5
1 last vote to show rating
add to favorites
×
Save as Personal and add changes to this tab that will be seen only by you. Learn more ›
×
You can save this tab as Personal to edit and correct it or add notes. All changes will be seen only by you. Learn more »
launch autoscroll
font size
0
reset
guitar tuner
edit
Autoscroll
slow
fast
+/-
esc
set tempo
stop
Artist: Twenty One Pilots
Song: Stressed Out
Bass tab
Tuning: Drop D (DADG)


[Intro]

G|---------------------------------------------------------------------------|
D|---------------------------------------------------------------------------|
A|-------------------------0----------0--------------------------------------| x6
D|--2--3-----3--0-------0----------0-----------2-----------------------------|

G|---------------------------------------------------------------------------|
D|---------------------------------------------------------------------------|
A|-------------------------0----------0--------------------------------------| 
D|--2--3-----3--0-------0----------0-----------14----------------------------|


[Verse]

G|---------------------------------------------------------------------------|
D|--15---14------------------------------2-----------------------------------|
A|------------12--------0-------3---3----------------------------------------|
D|-----------------14-------5------------------------------------------------|


[Chorus]

G|---------------------------------------------------------------------------|
D|----------------------2-2------------------------2-------------------------|
A|-0-0---0-------3-3---3------0-0---0-------3-3---3--------------------------|
D|--------5-5---5--------------------5-5---5---------------------------------|


[Instrumental]

G|---------------------------------------------------------------------------|
D|---------------------------------------------------------------------------|
A|-------------------------0----------0--------------------------------------| x2
D|--2--3-----3--0-------0----------0-----------2-----------------------------|


[Bridge]

G|-------------------|
D|-------------------|
A|-0-------5---3-----| x2
D|-----5-------------|

G|-------------------|
D|-----------------2-|
A|-0-------5---3-----| 
D|-----5-------------|


[Instrumental]

G|---------------------------------------------------------------------------|
D|---------------------------------------------------------------------------|
A|-------------------------0----------0--------------------------------------| 
D|--2--3-----3--0-------0----------0---------2-------------------------------|

G|---------------------------------------------------------------------------|
D|---------------------------------------------------------------------------|
A|-------------------------0----------0--------------------------------------| 
D|--2--3-----3--0-------0----------0---------14------------------------------|


[Verse]

G|---------------------------------------------------------------------------|
D|--15---14------------------------------2-----------------------------------|
A|------------12--------0-------3---3----------------------------------------|
D|-----------------14-------5------------------------------------------------|


[Chorus]

G|---------------------------------------------------------------------------|
D|----------------------2-2------------------------2-------------------------|
A|-0-0---0-------3-3---3------0-0---0-------3-3---3--------------------------|
D|--------5-5---5--------------------5-5---5---------------------------------|


[2nd Bridge]

G|-------------|
D|-------------|
A|-0-------3---|
D|----5--------|


[Chorus]

G|---------------------------------------------------------------------------|
D|----------------------2-2------------------------2-------------------------|
A|-0-0---0-------3-3---3------0-0---0-------3-3---3--------------------------|
D|--------5-5---5--------------------5-5---5---------------------------------|


[Outro]

G|---------------------------------------------------------------------------|
D|---------------------------------------------------------------------------|
A|-------------------------0----------0--------------------------------------| x2
D|--2--3-----3--0-------0----------0-----------2-----------------------------|

            
            
Suggest correction
Creating personal tab
Creating personal tab
You can edit any tab online and save it as your Personal.

You can edit, replace or remove any tab part or add personal notes – all changes will be seen only by you.

Personal tabs can be accessed anytime from any device, even offline.
Learn more »
Give kudos to tab author, rate the tab!
1 2 3 4 5
comments
print report bad tab
3 comments total.
0 reply
pincopallinor 10 Apr 26, 2016 12:56 PM

THX for the tabs!

0 reply
pincopallinor 10 Apr 26, 2016 12:57 PM

Thanks for the tab!

0 reply
djschool4 10 Apr 26, 2016 12:58 PM

Thanks for that bro!

guest
You may want to rate the tab now too:
select rating
Wanna post a correction for this tab? Suggest correction