Oops, an error
Loading. Please wait.

Stressed Out Bass Tab

version 5
version 5

Whole song

Interactive

130 views 21 this week
no commentswrite comment
1 2 3 4 5
x 3
add to favorites
launch autoscroll
font size
0
reset
guitar tuner
Autoscroll
slow
fast
+/-
esc
set tempo
stop
Help us to improve Ultimate-Guitar.com Take our survey!
×
About this tab version
This is Alto Fox's tab which he used in his youtube video here: https://www.youtube.com/watch?v=NYb1FnKpRDw This is just a write up of his tab so people can read it easier. Was this info helpful? Yes No
[Verse 1]

G|---------------------------|
D|---------------------------| 
A|---------------0----0------|x6
E|--2/3---3-0---0----0---2---|

[Pre-Chorus]

"My names Blurryface and I care what you think..."

G|---------------------------|
D|---------------------------| 
A|---------------0----0------|
E|--2/3---3-0---0----0---2---|

G|---------------------------|
D|---------------------------| 
A|---------------0----0------|
E|--2/3---3-0---0----0---14--|

[Chorus]

"Wish we could turn back time to the good ol' days..."

G|------------------------------------------|
D|-15---14---------------------------2------|
A|-----------12--------0-------3---3--------|
E|----------------14-------5----------------|


G|--------------------------|-------------------------|
D|----------------------2-2-|-----------------------2-|
A|-0-0---0-------3-3---3----|--0-0---0-------3-3---3--|
E|--------5-5---5-----------|---------5-5---5---------|


G|---------------------------|
D|---------------------------| 
A|---------------0----0------|x2
E|--2/3---3-0---0----0---2---|

[Verse 2]

"Sometimes a certain smell will take me back to when I was young..."

G|-------------------|
D|-------------------|
A|-0-------5---3-----| 
E|-----5-------------|

G|-------------------|
D|-----------------2-|
A|-0-------5---3-----|
E|-----5-------------| 

G|---------------------------|
D|---------------------------| 
A|---------------0----0------|
E|--2/3---3-0---0----0-------|


[Pre Chorus]

"My names Blurryface and I care what you think..."

G|---------------------------|
D|---------------------------| 
A|---------------0----0------|
E|--2/3---3-0---0----0---2---|

G|---------------------------|
D|---------------------------| 
A|---------------0----0------|
E|--2/3---3-0---0----0---14--|

[Chorus]

"Wish we could turn back time to the good ol' days..."

G|------------------------------------------|
D|-15---14---------------------------2------|
A|-----------12--------0-------3---3--------|
E|----------------14-------5----------------| 


G|--------------------------|-------------------------|
D|----------------------2-2-|-----------------------2-|
A|-0-0---0-------3-3---3----|--0-0---0-------3-3---3--|
E|--------5-5---5-----------|---------5-5---5---------| 
 
*No bass in the first part of the Bridge*

[Bridge *Second Part*]

Play from "Yo..."

G|--------------------------|
D|----------------------2-2-|
A|-0-0---0-------3-3---3----|x2
E|--------5-5---5-----------| 


[Chorus] 
 
"Wish we could turn back time to the good ol' days..."

G|-------------|
D|-------------| 
A|-0-------3---|
E|-----5-------|

G|--------------------------|-------------------------|
D|----------------------2-2-|-----------------------2-|
A|-0-0---0-------3-3---3----|--0-0---0-------3-3---3--|
E|--------5-5---5-----------|---------5-5---5---------| 

[Outro: BLURRYFΛCE]

"...but now we're stressed out..."

G|---------------------------|
D|---------------------------| 
A|---------------0----0------|x2
E|--2/3---3-0---0----0---2---|

*END*


************************************
| /   Slide up
************************************
Suggest correction
Give kudos to tab author, rate the tab!
1 2 3 4 5
comments
print report bad tab
guest
You may want to rate the tab now too:
select rating
Wanna post a correction for this tab? Suggest correction